PrimaNota.ru - самый крупный в мире бесплатный архив песенных текстов, аккордов, табулатур и нот


Washya - I Wish I Was Your Man - таба, видео

Регистрация Запомнить меня
Войти через:  Facebook Google Twitter Vk Yandex Mail.ru

Washya - I Wish I Was Your Man - таба, видео

Печатать
Просмотров: 55
-------------------------------------------------------------------------------
                      I Wish I Was Your Man - Washya
-------------------------------------------------------------------------------
Tuning: Standard (EBGDAE)
Intro/Verses
E|-0-------------------------0-0-------------------|
B|-1-1p0-----1-------------1-1---1-----0h1p0-------|
G|-2-----2p0-----2-2p0---2---2---------------2---2-|
D|-2-----------2-------2-----2-----------------2---|
A|-0-------------------------0-------0-------------|
E|-0-------------------------0-----0---------------|

Chorus
E|-------------------------|
B|-------------------------|
G|-55-77-------55-33-------|
D|-55-77-55-33-55-33-55-88-|
A|-33-55-55-33-33-11-55-88-|
E|-------33-11-------33-66-|

Interlude
E|---------------------------------------------------------------------|
B|---------------------------------------------------------------------|
G|---------------------------------5---------------3-------------------|
D|-------2-4---------------4-6---6---6-4---------4---4h5p4-------------|
A|-----2-----2-----------4-----4---------------4-----------666-7-6-4-2-|
E|-2-4---------5-4-2/4-6-----------------5-4-2-------------444-5-4-2-0-|
PM                                                             * * * 
Добавлено: 28.08.2013
Другие материалы по этой песне:
  • Аккорды и текст

Страница создана 28.08.2013
http://primanota.ru/washya/i-wish-i-was-your-man-chords.htm
Привет, Гость.
Предлагаем пройти революционный курс по гитаре.
Подарок от PrimaNota.Ru, забирай!