PrimaNota.ru - самый крупный в мире бесплатный архив песенных текстов, аккордов, табулатур и нот


Washya - I Dont Care How You Feel - таба, видео

Регистрация Запомнить меня
Войти через:  Facebook Google Twitter Vk Yandex Mail.ru

Washya - I Dont Care How You Feel - таба, видео

Печатать
Просмотров: 91
Уроки эстрадного вокала в Санкт-Петербурге
-------------------------------------------------------------------------------
                  I Don't Care How You Feel - Washya
-------------------------------------------------------------------------------
Tuning: Drop D (DADGBE)
Intro
E|------------------------------------------------------------------------|
B|------------------------------------------------------------------------|
G|------------------------------------------------------------------------|
D|---------------------11------------3------------------9-----------------|
A|-----8p7h8-----10h12----12-----5h6---6p5---------/7h9---9-8-7-----------|
D|-000-------000-------------000-----------000-000--------------7-5-3-5-3-|
PM ***       ***             ***           *** ***              * * * * *

Verses
E|-----------------|
B|-----------------|
G|-----------------|
D|-----------------|
A|-0-00------2\1\0-|
D|-0-00-5bv~-2\1\0-|
PM * ** 

Chorus
E|------------------------------------------------------------------------|
B|------------------------------------------------------------------------|
G|------------------------------------------------------------------------|
D|-3-6-5-3---3--------------------------5-8-7-5---5-----------------------|
A|---------5---6-5-3-------11111/33-333---------7---8-7-5-------7777-33/5-|
D|-------------------3h5p3-11111/33-333-------------------5h7p5-7777-33/5-|

Guitar Solo
E|----------------------------------------13p10----10h13p10----10h13p10h13~-|
B|-12p10----10h12p10----10h12p10----10h12-------12----------12--------------|
G|-------11----------11----------11-----------------------------------------|
D|--------------------------------------------------------------------------|
A|--------------------------------------------------------------------------|
D|--------------------------------------------------------------------------|

E|--------------------------------------------15~-/14h15p14h15\12h14p12h14-|
B|-/------14-----------14-----------14-----14------------------------------|
G|--------14h16p14-----14h16p14-----14-----14------------------------------|
D|----15b----------15b----------15b----15b---------------------------------|
A|-------------------------------------------------------------------------|
D|-------------------------------------------------------------------------|

E|-11h12p11h12p11\9h11p9h11p9h11\9h10p9h10p9\-----------------------|
B|--------------------------------------------8p7-------7h8p7-------|
G|------------------------------------------------9-7-9-------9-8-7-|
D|------------------------------------------------------------------|
A|------------------------------------------------------------------|
D|------------------------------------------------------------------|

E|--------------------------------------------------|
B|--------------------------------------------------|
G|---7---------8p7----------------------------------|
D|-9---9---9-7-----9-7-6---7-6-9--------------------|
A|-------9---------------9-------8-7-8-5---5--------|
D|---------------------------------------7---7-6-5~-|

Intro
E|------------------------------------------------------------------------|
B|------------------------------------------------------------------------|
G|------------------------------------------------------------------------|
D|---------------------11------------3------------------9-----------------|
A|-----8p7h8-----10h12----12-----5h6---6p5---------/7h9---9-8-7-----------|
D|-000-------000-------------000-----------000-000--------------7-5-3-5-3-|
PM ***       ***             ***           *** ***              * * * * *

Verses
E|-----------------|
B|-----------------|
G|-----------------|
D|-----------------|
A|-0-00------2\1\0-|
D|-0-00-5bv~-2\1\0-|
PM * ** 
Добавлено: 26.10.2013
Другие материалы по этой песне:
  • Аккорды и текст

Страница создана 26.10.2013
http://primanota.ru/washya/i-dont-care-how-you-feel-chords.htm
Привет, Гость.
Предлагаем пройти революционный курс по гитаре.
Подарок от PrimaNota.Ru, забирай!