PrimaNota.ru - самый крупный в мире бесплатный архив песенных текстов, аккордов, табулатур и нот


Washya - Honesty Rewarded - таба

Регистрация Запомнить меня
Войти через:  Facebook Google Twitter Vk Yandex Mail.ru

Washya - Honesty Rewarded - таба

Печатать
Просмотров: 50
Уроки эстрадного вокала в Санкт-Петербурге
-----------------------------------------------------------------------------
          Honesty Rewarded - Washya
-----------------------------------------------------------------------------
Tuning: Drop D (DADGBE)
Intro (slow)
E|-------------------------------|
B|-------------------------------|
G|-------------------------------|
D|---------3-------------3-------|
A|---5-3-5---3-5---5-3-5---3-----|
D|-0-------------0-----------1-0-|x 3 
PM *             *             * 

Main Riff (Palm mute slightly) 
E|-------------------------------------|
B|-------------------------------------|
G|-------------------------------------|
D|-------------------------------------|
A|-5-3-5-7-1-3-5-3-5-7-1-3-5-3-5-7-5-2-|
D|-5-3-5-7-1-3-5-3-5-7-1-3-5-3-5-7-5-2-|
PM * * * * * * * * * * * * * * * * *  

Verses
E|-0-0-------0-----------0---------2-2222-22-------|
B|-3---3---3---3-1---1-3---3---1-3---3333-33-------|
G|-2-----2---------2---------2-------2222-22-2-222-|
D|-0-----------------------------------------0-000-|
A|-0-----------------------------------------------|
D|-0-----------------------------------------------|

Solo
E|-------------------------------------------------------------------13-15~-|
B|------------------------------------------------------11-11h13~-11--------|
G|-------------------------------------5---5-7-5-7/9-9~-11-11h--------------|
D|-----3-------5b-3-5\\\---------7-5-7---7----------------------------------|
A|-3-5---5-3-5-----------xx-xx-x--------------------------------------------|
D|-----------------------xx-xx-x--------------------------------------------|
Добавлено: 23.09.2013
Другие материалы по этой песне:
  • Аккорды и текст

Страница создана 23.09.2013
http://primanota.ru/washya/honesty-rewarded-chords.htm
Привет, Гость.
Предлагаем пройти революционный курс по гитаре.
Подарок от PrimaNota.Ru, забирай!