PrimaNota.ru - самый крупный в мире бесплатный архив песенных текстов, аккордов, табулатур и нот


Washya - Divebomb - таба

Регистрация Запомнить меня
Войти через:  Facebook Google Twitter Vk Yandex Mail.ru

Washya - Divebomb - таба

Печатать
Просмотров: 52
-----------------------------------------------------------------------------
            Divebomb - Washya
-----------------------------------------------------------------------------
Tuning: Standard (EBGDAE)
Intro
E|--------------------------------|
B|--------------------------------|
G|--------------------------------|
D|-------------------------333-22-|
A|-5/6/7-3/4/5-5/6/7-3/4/5-111-00-|
E|-3/4/5-1/2/3-3/4/5-1/2/3--------|
PM * * * * * * * * * * * *         x3

Verses
E|--------------------|-----------|
B|--------------------|-----------|
G|--------------------|-----------|
D|--------------------|-----------|
A|-22---------5-------|-3/5/6/5/3-|
E|-00-0h3-333---1h3p1-|-1/3/4/3\1-|
PM **     ***       x3

Chorus
E|-----------------------------------------|
B|-----------------------------------------|
G|-----------------------------------------|
D|-777-55-10-----------555-33-8------------|
A|-555-33-8-2222-333-4-333-11-6-5555-777-8-|
E|----------0000-111-2----------3333-555-6-|

Lead
E|------------------------------------------------------------------------|
B|------------------------------------------------------------------------|
G|------------------------------------------------------------------------|
D|----------2---2-4-2-4/5p4h5/8p7h8/10~-------------------------------13~-|
A|----4-2-4---4----------------------------3p2h3/6p5h6/9p8h9/12p11h12-----|
E|-22-----------------------------------22--------------------------------|
PM **                                   ** 

E|-----------------------------------------------------------------------|
B|-------------------------------------------------------------------12~-|
G|----3p2p0----------------------------------------7---7h8p7/10p9h10-----|
D|----------2h3p2p0----------------3---3-5-3-5p4h5---5-------------------|
A|------------------3p2p0----5-3-5---5-----------------------------------|
E|-22---------------------22---------------------------------------------|
PM **                     **

E|-------------------------------------------------------------------------|
B|----------------------------------------------------------------14h15h16-|
G|-------------------------------------------------------14h15h16----------|
D|-------------------------------------12h13h14-12h13h14-------------------|
A|-------------------13h14h15-13h14h15-------------------------------------|
E|-12h13h14-12h13h14-------------------------------------------------------|
PM ******** ******** ******** 

E|----------------------------15h17h18-15h17h18~-18b-20b~\-----|
B|-14h15h16-14h16h17-14h16h17----------------------------------|
G|-------------------------------------------------------------|
D|-------------------------------------------------------------|
A|-------------------------------------------------------------|
E|-------------------------------------------------------------|
Добавлено: 14.10.2013
Другие материалы по этой песне:
  • Аккорды и текст

Страница создана 14.10.2013
http://primanota.ru/washya/divebomb-chords.htm
Привет, Гость.
Предлагаем пройти революционный курс по гитаре.
Подарок от PrimaNota.Ru, забирай!