PrimaNota.ru - самый крупный в мире бесплатный архив песенных текстов, аккордов, табулатур и нот


Washya - Dog Bones - таба, видео

Регистрация Запомнить меня
Войти через:  Facebook Google Twitter Vk Yandex Mail.ru

Washya - Dog Bones - таба, видео

Печатать
Просмотров: 63
-----------------------------------------------------------------------------
                      Dog Bones - Washya
-----------------------------------------------------------------------------
Tuning: Standard (ebgDAE)
Intro/Main Riff/Chorus
e|----------------------------------------------------------------|
b|----------------------------------------------------------------|
g|----------------------------------------------------------------|
D|-----------------------------------------10-7---7---------------|
A|----------------------------------------------9---9-8-7---5-----|
E|-0-0-0-0-0-0-0-0-0-0-0-0-0-0-0-0-0-0-0-0----------------9---7-5-|x 8
PM * * * * * * * * * * * * * * * * * * * * 

Verses
e|----------------------------------------------------------------|
b|----------------------------------------------------------------|
g|---------------------------------------------------------7-10-9-|
D|--------------------------------------------------10-7----------|
A|-------------------------------------------------------9--------|
E|-000-0-0-0-0-0000-00-0-0-0-0-0000-0-0-0-0-00-0000---------------|
PM *** * * * * **** ** * * * * **** * * * * ** ****

Solo
e|---------------------------------------------------------------------|
b|--------------8~-------------10~-------------------------------------|
g|------7---8---------9---10-------------------------------------------|
D|-/5-5---5---5----/7---7----7-----------------------------4-5-7-4-5-7-|
A|---------------------------------------------4-5-7-4-5-7-------------|
E|---------------------------------3-4-6-3-4-6-------------------------|
PM                                 * * * * * * * * * * * * * * * * * * 

e|---------------------------11-13-15-11-13-15~-12h18p15p12t18p15p12---|
b|-------------7-9-11-7-9-11-------------------------------------------|
g|-5-6-8-5-6-8---------------------------------------------------------|
D|---------------------------------------------------------------------|
A|---------------------------------------------------------------------|
E|---------------------------------------------------------------------|
PM * * * * * * * * * * * * *

e|-12t18p15p12--------------------------------------------------------|
b|-------------13t19p16p13t19p16p13-----------------------------------|
g|----------------------------------13t19p16p13t19p16p13----14----15~-|
D|-------------------------------------------------------13----13-----|
A|--------------------------------------------------------------------|
E|--------------------------------------------------------------------|

e|----------------15----------------15----------------18----18----19~-|
b|-17-14----14-17----17-14----14-17----17-14----14-17----17----17-----|
g|-------16----------------16----------------16-----------------------|
D|--------------------------------------------------------------------|
A|--------------------------------------------------------------------|
E|--------------------------------------------------------------------|
Добавлено: 04.06.2013
Другие материалы по этой песне:
  • Аккорды и текст

Страница создана 04.06.2013
http://primanota.ru/washya/dog-bones-chords.htm
Привет, Гость.
Предлагаем пройти революционный курс по гитаре.
Подарок от PrimaNota.Ru, забирай!