PrimaNota.ru - самый крупный в мире бесплатный архив песенных текстов, аккордов, табулатур и нот


Washya - Dominate And Survive - таба, видео

Регистрация Запомнить меня
Войти через:  Facebook Google Twitter Vk Yandex Mail.ru

Washya - Dominate And Survive - таба, видео

Печатать
Просмотров: 58
-----------------------------------------------------------------------------
               Dominate and Survive - Washya
-----------------------------------------------------------------------------
Tuning: Standard (ebgDAE)
Intro
e|----------------------------------|
b|----------------------------------|
g|----------------------------------|
D|-----999-----999-----999----------|
A|-----777-----777-----777-55/7\5/7-|
E|-000-----000-----000-----33/5\3/5-|
PM ***     ***     ***     

Part 2
e|----------------------------------------|
b|----------------------------------------|
g|----------------------------------------|
D|-999-888-777----------------------------|
A|-777-666-555-555-777-222-22223232222323-|
E|-------------333-555-000-00001010000101-|
PM                         **** * **** * 

Chorus
e|--------------------------------------------------------------------------|
b|--------------------------------------------------------------------------|
g|--------------------------------------------------------------------------|
D|-------------10910-7------3------5--------------4--------9-7--------------|
A|-7-6-5-4-3-2-8-7-8-5------1------3------6-5-4-2-2-7----------10-9-7---7---|
E|-5-4-3-2-1-0---------0000---0000---0000-4-3-2-0---5-0000------------9---7-|
PM * * * * * *         ****   ****   ****                  * * ** * * * * 

Just Before Solo
e|---------------------------------------------------------------|
b|---------------------------------------------------------------|
g|-/9~-9-7---7--------------------9-7---7------------------------|
D|---------9---9-8-7------------------9---9-8-7------------------|
A|-------------------10-9-7-777-5---------------10-9-7-----888-6-|
E|--------------------------555-3----------------------9-7-666-4-|
PM                          ***                            *** 

Solo
e|-------------------------------------12b---------------------|
b|---------------------------------12~-12b-12b-12b-12b-12b-----|
g|------------------------6---8-10-------------------------10\-|
D|--------3---5-3-5-3/6-8---8----------------------------------|
A|-/3-3-5---5--------------------------------------------------|
E|-------------------------------------------------------------|
PM    * * * * * * * * * * * * 

e|---------------------------------------------------------------13b~-|
b|------------------------------------------------------11-12-11------|
g|----------------------------------------------------9---------------|
D|---------------------------------------------7-9-11-----------------|
A|-------------5-7-8-5-7-8--------------7-9-10------------------------|
E|-5-7-8-5-7-8-------------5-7-8-5-7-8--------------------------------|
PM * * * * * * * * * * * * * * * * * * * * * * * *  

(play this part very fast 15 times)
e|-13h19p13h19p13h19p13t20p13t20p13t21-22-22-22b~-|
b|------------------------------------------------|
g|------------------------------------------------|
D|------------------------------------------------|
A|------------------------------------------------|
E|------------------------------------------------|
Добавлено: 02.08.2013
Другие материалы по этой песне:
  • Аккорды и текст

Страница создана 02.08.2013
http://primanota.ru/washya/dominate-and-survive-chords.htm
Привет, Гость.
Предлагаем пройти революционный курс по гитаре.
Подарок от PrimaNota.Ru, забирай!