PrimaNota.ru - самый крупный в мире бесплатный архив песенных текстов, аккордов, табулатур и нот


Washya - Dogged Fight - таба, видео

Регистрация Запомнить меня
Войти через:  Facebook Google Twitter Vk Yandex Mail.ru

Washya - Dogged Fight - таба, видео

Печатать
Просмотров: 72
-------------------------------------------------------------------------------
                        Dogged Fight - Washya
-------------------------------------------------------------------------------
Tuning: Drop D (DADGBE)
Intro
E|-------------------|
B|-3333/5555---------|
G|-------------------|
D|-------------------|
A|-----------3h5-3h6-|
D|-----------3h5-3h6-|

Main Riff/Chorus
E|--------------------------------------------------|
B|--------------------------------------------------|
G|--------------------------------------------------|
D|--------------------------------------------------|
A|-6-3-5-3-6-3-5/8-6-3-5-3-6-3-5/88888888-9-8-7-6-5-|
D|-6-3-5-3-6-3-5/8-6-3-5-3-6-3-5/88888888-9-8-7-6-5-|

Verses
E|-----------------------------------------------|
B|-----------------------------------------------|
G|-----------------------------------------------|
D|-----------2-----------2--------2--------------|
A|-111111111-0-111111111-0-1-1-11-0-66-5-3-5-3-0-|
D|-111111111---111111111---1-1-11---66-5-3-5-3-0-|
PM *********   *********   * * **   ** * * * * * 
      ^ones

Guitar Lead
E|-------------------------------------------------------------------------|
B|----7---------------------7h9p7----7h9p7-------7----7-10-8-7----7--------|
G|-9b---9-7-9b-----------8b-------8b-------8b-9b---9b----------10---10p9p7-|
D|-------------8b-6b--------------------------9b---9b----------------------|
A|-------------------4b----------------------------------------------------|
D|-------------------------------------------------------------------------|

E|----------------------------------------------------------------------|
B|-----------------6p5-------------------------9-11---------------------|
G|---7p6p4---6p5-7-----7-10---7b~-/9b~----9-11------11-9----------------|
D|-9-------7----------------9----------11----------------11-10-9--------|
A|---------------------------------------------------------------11-----|
D|------------------------------------------------------------------11~-|

E|-------------------------------------------8b/10b-10h13p10h13p10-------|
B|-------------------------------------------8b/10b----------------13p10-|
G|-------------------------------------7-5-7-----------------------------|
D|-----------------7-8-7-5-----7-5-7-8-----------------------------------|
A|-------5-7-8-7-5---------7h8-------------------------------------------|
D|-5-7-8-----------------------------------------------------------------|

E|----------------------------------------10----10-------------10-----------|
B|----10h13p10h13p10----10----------12h13----13----13p10h12h13----13p12p10~-|
G|-12----------------13----13p12p10-----------------------------------------|
D|--------------------------------------------------------------------------|
A|--------------------------------------------------------------------------|
D|--------------------------------------------------------------------------|

Tuning: Drop D (DADGBE)
Intro
E|-------------------|
B|-3333/5555---------|
G|-------------------|
D|-------------------|
A|-----------3h5-3h6-|
D|-----------3h5-3h6-|

Main Riff/Chorus
E|--------------------------------------------------|
B|--------------------------------------------------|
G|--------------------------------------------------|
D|--------------------------------------------------|
A|-6-3-5-3-6-3-5/8-6-3-5-3-6-3-5/88888888-9-8-7-6-5-|
D|-6-3-5-3-6-3-5/8-6-3-5-3-6-3-5/88888888-9-8-7-6-5-|

Verses
E|-----------------------------------------------|
B|-----------------------------------------------|
G|-----------------------------------------------|
D|-----------2-----------2--------2--------------|
A|-111111111-0-111111111-0-1-1-11-0-66-5-3-5-3-0-|
D|-111111111---111111111---1-1-11---66-5-3-5-3-0-|
PM *********   *********   * * **   ** * * * * * 
Добавлено: 09.09.2013
Другие материалы по этой песне:
  • Аккорды и текст

Страница создана 09.09.2013
http://primanota.ru/washya/dogged-fight-chords.htm
Привет, Гость.
Предлагаем пройти революционный курс по гитаре.
Подарок от PrimaNota.Ru, забирай!