PrimaNota.ru - самый крупный в мире бесплатный архив песенных текстов, аккордов, табулатур и нот


Tyr - The Ride To Hel - таба, видео

Регистрация Запомнить меня
Войти через:  Facebook Google Twitter Vk Yandex Mail.ru

Tyr - The Ride To Hel - таба, видео

Печатать
Просмотров: 147
The Ride To Hel
TÝR

C#|-------------------|--------------------|------------------|------------------|
G#|-------------------|--------------------|------------------|------------------|
 E|-------------(PH)--|--------------------|------------------|------------------|
 B|-----5~-------4~---|-----3-2-0-2~-(PH)--|------------------|------------------| 
F#|--------3-5-3------|--1~-----------1~---|------------------|------------------|
 B|--5~---------------|--------------------|--5~-8~-8-7-5-7~--|--0~-7-5-3-5~-0~--|

C#|--------------------|---------------------|2X
G#|o-------------------|--------------------o|
 E|--------------(PH)--|---------------------| 
 B|------5~-------4~---|-----3-2-0-2~-(PH)---|
F#|o--------3-5-3------|--1~-----------1~---o|
 B|---5~---------------|---------------------|

C#|-----------|------------|
G#|-----------|--/////20~--|
 E|-----------|------------|
 B|--5~\\\\\--|------------|
F#|--5~\\\\\--|------------|
 B|--5~\\\\\--|------------|

C#|-------------|-------------|---------|-------------|-------------|---------|
G#|-------------|-------------|---------|-------------|-------------|---------|
 E|-------------|-------------|---------|-------------|-------------|---------|
 B|--5-5-5-5-5--|--7-8-8-8-8--|--7-7-7--|--5-5-5-5-8--|--7-8-8-8-8--|--8-7-7--|
F#|--5-5-5-5-5--|--5-5-5-5-5--|--5-5-5--|--5-5-5-5-5--|--5-5-5-5-5--|--5-5-5--|
 B|-------------|-------------|---------|-------------|-------------|---------|

C#|-------------|-------------|---------|-----------------|-------------|
G#|-------------|-------------|---------|-----6~-5~-(PH)--|-------------|
 E|-------------|-------------|---------|--5~--------5~---|-------------|
 B|--5-5-5-5-7--|--7-7-8-8-8--|--8-8-8--|--5~-------------|--7-7-7-7-7--|
F#|--5-5-5-5-5--|--5-5-5-5-5--|--5-5-5--|-----------------|--5-5-5-5-5--|
 B|-------------|-------------|---------|-----------------|-------------|

C#|-------------|---------|------------|--------|-------------|-------------|-------|
G#|-------------|---------|------------|--(PH)--|-------------|-------------|-------|
 E|-------------|---------|------------|---2~---|-------------|-------------|-(PH)--|
 B|--7-7-5-5-5--|--7-7-7--|--4~-5~-2~--|--------|-------------|-------------|--5~---|
F#|--5-5-5-5-5--|--5-5-5--|--5~-5~-4~--|--------|--7-7-7-7-7--|--3-3-5-5-5--|-------|
 B|-------------|---------|------------|--------|--7-7-7-7-7--|--3-3-5-5-5--|-------|

C#|-------------------|--------------------|------------------|------------------|
G#|-------------------|--------------------|------------------|------------------|
 E|-------------(PH)--|--------------------|------------------|------------------|
 B|-----5~-------4~---|-----3-2-0-2~-(PH)--|------------------|------------------| 
F#|--------3-5-3------|--1~-----------1~---|------------------|------------------|
 B|--5~---------------|--------------------|--5~-8~-8-7-5-7~--|--0~-7-5-3-5~-0~--|

C#|--------------------|---------------------|2X
G#|o-------------------|--------------------o|
 E|--------------(PH)--|---------------------| 
 B|------5~-------4~---|-----3-2-0-2~-(PH)---|
F#|o--------3-5-3------|--1~-----------1~---o|
 B|---5~---------------|---------------------|

C#|-------------|-------------|---------|-----------------|-------------|
G#|-------------|-------------|---------|-----6~-5~-(PH)--|-------------|
 E|-------------|-------------|---------|--5~--------5~---|-------------|
 B|--5-5-5-5-7--|--7-7-8-8-8--|--8-8-8--|--5~-------------|--7-7-7-7-7--|
F#|--5-5-5-5-5--|--5-5-5-5-5--|--5-5-5--|-----------------|--5-5-5-5-5--|
 B|-------------|-------------|---------|-----------------|-------------|

C#|-------------|---------|------------|--------|-------------|-------------|-------|
G#|-------------|---------|------------|--(PH)--|-------------|-------------|-------|
 E|-------------|---------|------------|---2~---|-------------|-------------|-(PH)--|
 B|--7-7-5-5-5--|--7-7-7--|--4~-5~-2~--|--------|-------------|-------------|--5~---|
F#|--5-5-5-5-5--|--5-5-5--|--5~-5~-4~--|--------|--7-7-7-7-7--|--3-3-5-5-5--|-------|
 B|-------------|---------|------------|--------|--7-7-7-7-7--|--3-3-5-5-5--|-------|

C#|------|------|------|--------|------|------------|------|------|-------------|
G#|------|------|------|--------|------|------------|------|------|-------------|
 E|------|--5~--|--5~--|--2-3~--|--5~--|--2~-0~-----|------|--5~--|--3~-2~------|
 B|--3~--|--5~--|--5~--|--2-3~--|--5~--|--3~-3~-3~--|--3~--|--5~--|--3~-2~--3~--|
F#|--3~--|--3~--|--3~--|--0-1~--|--3~--|--3~-3~-3~--|--3~--|--3~--|--1~-0~--3~--|
 B|--3~--|------|------|--------|------|--------3~--|--3~--|------|---------3~--|

I'll keep updating this when I've tabbed more out.
Добавлено: 18.07.2012
Другие материалы по этой песне:
  • Аккорды и текст

Страница создана 18.07.2012
http://primanota.ru/tyr/the-ride-to-hel-chords.htm
Привет, Гость.
Предлагаем пройти революционный курс по гитаре.
Подарок от PrimaNota.Ru, забирай!