PrimaNota.ru - самый крупный в мире бесплатный архив песенных текстов, аккордов, табулатур и нот


Tyr - Ride - таба, видео

Регистрация Запомнить меня
Войти через:  Facebook Google Twitter Vk Yandex Mail.ru

Tyr - Ride - таба, видео

Печатать
Просмотров: 179
Авторы музыки: [traditional], Heri Joensen
Авторы текста: Heri Joensen
                                  RIDE 


Intro
|---------------------------------------------------------------------|
|---------------------------------------------------------------------|
|---------------------------------------------------------------------|
|---------------7-9--9-10-9-7------7--7-9-7---------7--7-9-7----------|
|-7-7-9-10--10----------------9-10----------10-9-10-----------10-9-10-|
|---------------------------------------------------------------------|
|
|---------------7--7-8-7---------------7-----------------7------------|
|------7-8-8-10----------10-7-8-10--10---10-8-7-8-10--10---10-8-7-8---|
|-9--9----------------------------------------------------------------|
|---------------------------------------------------------------------|
|---------------------------------------------------------------------|
|---------------------------------------------------------------------|

Verse
|----------------------------------|----------------------------------|
|-5~-5-3------3-5----------/7~-5-4-|-5~-5-3------3-5----------/7------|
|--------4~-5-----4~-4-4-5---------|--------4~-5-----4~-4-4-5---------|
|----------------------------------|----------------------------------|
|----------------------------------|----------------------------------|
|----------------------------------|----------------------------------|
|
|----------------------------------|----------------------------------|
|----------------------------------|----------------------------------|
|-9~-9-7-4--5-7-9~-4--4-4-5~-7-5-4-|-9~-9-7-4~-5-7-9~-4--4-4-5~-7-----|
|-9~-9-7-4~-5-7-9~-4--4-4-5~-7-5-4-|-9~-9-7-4~-5-7-9~-4--4-4-5~-7-----|
|-7~-7-5-2~-3-5-7~-2--2-2-3~-5-3-2-|-7~-7-5-2~-3-5-7~-2--2-2-3~-5-----|
|-7~-7-5-2~-3-5-7~-2--2-2-3~-5-3-2-|-7~-7-5-2~-3-5-7~-2--2-2-3~-5-----|

Pre-Chorus
|-----------------------------------------------------------------|
|-----------------------------------------------------------------|
|-7-5-4-4~/5-5~/7-7~/5--5-7-9--4/5/7--7---------------------------|
|-7-5-4-4~/5-5~/7-7~/5--5-7-9--4/5/7--7--x-xx-xx-xx-x-xxxxxxxxxx--|
|-5-3-2-2~/3-3~/5-5~/3--3-5-7--2/3/5--5--x-xx-xx-xx-x-xxxxxxxxxx--|
|-5-3-2-2~/3-3~/5-5~/3--3-5-7--2/3/5--5--x-xx-xx-xx-x-xxxxxxxxxx--|


Chorus
|---------------------------------------------------------------------|
|---------------------------------------------------------------------|
|---------------------------------------------------------------------|
|---------------7-9--9-10-9-7------7--7-9-7---------7--7-9-7----------|
|-7-7-9-10--10----------------9-10----------10-9-10-----------10-9-10-|
|---------------------------------------------------------------------|
|
|---------------7--7-8-7---------------7-----------------7------------|
|------7-8-8-10----------10-7-8-10--10---10-8-7-8-10--10---10-8-7-8---|
|-9--9----------------------------------------------------------------|
|---------------------------------------------------------------------|
|---------------------------------------------------------------------|
|---------------------------------------------------------------------|

Verse
Pre-Chorus
Chorus

Interlude
|-7---------7------------5-7-9-10-7-5--------5-----5-7-9-10-9-10---|\
|---5-8-7-5---5-8-7-5--8--------------7----7---7-8-----------------| |
|----------------------------------------7-------------------------| |
|------------------------------------------------------------------| |
|------------------------------------------------------------------| |
|------------------------------------------------------------------| |x
                                                                     |2
|-7---------7------------5-7-9-10-9-10-12-9-10-7-5-----------------| |
|---5-8-7-5---5-8-7-5--8---------------------------7---7-5-8-7---5-| |
|----------------------------------------------------7---------7---| |
|------------------------------------------------------------------| |
|------------------------------------------------------------------| |
|------------------------------------------------------------------|/

|--5-7--12-12-10-12-14-12-10-7-5-7-9-10-7-5-------5------5-7-9-10-9-10-|\
|8------------------------------------------7---7---7--7---------------| |
|---------------------------------------------7------------------------| |
|----------------------------------------------------------------------| |
|----------------------------------------------------------------------| |
|----------------------------------------------------------------------| |
                                                                         |x2
|--7-12-12-10-12-14-12-10-7-5-7-9-10-9-10-12-9-10-7-5------------------| |
|-----------------------------------------------------7---7-5-8-7---5--| |
|-------------------------------------------------------7---------7----| | 
|----------------------------------------------------------------------| |
|----------------------------------------------------------------------| |
|----------------------------------------------------------------------|/

|-----|
|-----|
|-9~--|
|-9~--|
|-7~--|
|-7~--|

Pre-Chorus
Chorus

End

|-12~--|
|------|
|------|
|------|
|------|
|------|
|
|------|
|-5~---|
|------|
|------|
|------|
|------|
|
|------|
|------|
|-9----|
|-9----|
|-7----|
|-7----|
Добавлено: 13.08.2013
Другие материалы по этой песне:
  • Аккорды и текст

Страница создана 13.08.2013
http://primanota.ru/tyr/ride-chords.htm
Привет, Гость.
Предлагаем пройти революционный курс по гитаре.
Подарок от PrimaNota.Ru, забирай!