PrimaNota.ru - самый крупный в мире бесплатный архив песенных текстов, аккордов, табулатур и нот


Tyr - Evening Star - таба, видео

Регистрация Запомнить меня
Войти через:  Facebook Google Twitter Vk Yandex Mail.ru

Tyr - Evening Star - таба, видео

Печатать
Просмотров: 84
Авторы музыки: Heri Joensen
Авторы текста: Heri Joensen
-----------------------------------------------------------------------------------------------
                             Evening Star - Týr
-----------------------------------------------------------------------------------------------

Tabbed by: AryaFalch


Tabbed by ear, there may be mistakes.
This is the way I use to play it.
Listen to the song for tempo/rythm.



Tuning: Standard

e|--------------------------------------------------------------------------------------------|
B|-----------------------------------0--------------------------------------------------------|
G|------------------------0-------------------------------------------------------------------|
D|--------4------------2----------0-----4-----------------------------------------------------|
A|----2------5-----0----------2---------------2--4--5--------------4--7--5--2--2--------------|
E|------------------------------------------------------5--2--6--------------------5--2--5----|

Repeat


*******************
/ means slide up
\ means slide down
*******************
Добавлено: 07.04.2016
Другие материалы по этой песне:

Страница создана 14.09.2013
http://primanota.ru/tyr/evening-star-chords.htm
Привет, Гость.
Предлагаем пройти революционный курс по гитаре.
Подарок от PrimaNota.Ru, забирай!