PrimaNota.ru - самый крупный в мире бесплатный архив песенных текстов, аккордов, табулатур и нот


Tyr - Hold The Heathen Hammer High - таба, драм-таба, видео

Регистрация Запомнить меня
Войти через:  Facebook Google Twitter Vk Yandex Mail.ru

Tyr - Hold The Heathen Hammer High - таба, драм-таба, видео

Печатать
Просмотров: 467
Авторы музыки: Heri Joensen
Авторы текста: Heri Joensen
Tabbed by:FatherOfLiesYFG
Email:unearthcarnage@hotmail.co.nz

Tuning:Drop D (Supposedly, May be lower)

Figure 1 (intro) 0:00 - 0:18 
E:---------------------------------------------------------------------| 
B:---------------------------------------------------------------------| 
G:---------------------------------------------------------------------| 
D:-0-2-3-2--------------2-3----0-2-3-2---2-3--3-2----------------------| 
A:---------5-4-5--5-4-5----------------5----------3-2-3----------------| 
E:---------------------------------------------------------------------| 


E:---------------------------------------------------------------------| 
B:---------------------------------------------------------------------| 
G:-----2-------0--0---2---2--2-4-5-4-2---2--2---2---2------------------| 
D:-3-5---5-3-2------2---5--------------5------5---5--------------------| 
A:---------------------------------------------------------------------| 
E:---------------------------------------------------------------------| 

Figure 2 (the fast part) 
E:-----------------------------3-5-3----------3------------------------| 
B:-3-5-6-5-3-2-3--3-2-3-5-6--6-------6-5-6--6---5-3-5------------------| 
G:---------------------------------------------------------------------| 
D:---------------------------------------------------------------------| 
A:---------------------------------------------------------------------| 
E:---------------------------------------------------------------------| 


E:---------------------------------------------------------------------| 
B:-3-5-6-5-3---3--3-5------------5-------------------------------------| 
G:-----------5--------5-4-5--5-7---7-5-4-5--5-7-6-4-6------------------| 
D:---------------------------------------------------------------------| 
A:---------------------------------------------------------------------| 
E:---------------------------------------------------------------------| 


Figure 2 (the fast part) [alternate Version] 
E:---------------------------------------------------------------------| 
B:--------------------------------8-10-8-------------8-----------------| 
G:-7-9-10-9-7-6-7--7-6-7-9-10--10--------10-9-10--10---9-7-9-----------| 
D:---------------------------------------------------------------------| 
A:---------------------------------------------------------------------| 
E:---------------------------------------------------------------------| 


E:---------------------------------------------------------------------| 
B:---------------------------------------------------------------------| 
G:-7-9-10-9-7----7--7-9----------------9-------------------------------| 
D:------------10--------10-9-10--10-12---12-10-9-10--10-12--11-9-11----| 
A:---------------------------------------------------------------------| 
E:---------------------------------------------------------------------| 


Figure 3 (hold the Heathen Hammer high) 
E:---------------------------------------------------------------------| 
B:---------------------------------------------------------------------| 
G:---------------------------------------------------------------------| 
D:----7-----7----------------------------------------------------------| 
A:----5-----5------5-7-8-7-5-4-----------------------------------------| 
E:-00---000----000-----------------------------------------------------|



So thats pretty much what I have so far , sounds good to me . Need any help just mail .
Добавлено: 16.05.2012
Другие материалы по этой песне:

Страница создана 16.05.2012
http://primanota.ru/tyr/hold-the-heathen-hammer-high-chords.htm
Привет, Гость.
Предлагаем пройти революционный курс по гитаре.
Подарок от PrimaNota.Ru, забирай!