PrimaNota.ru - самый крупный в мире бесплатный архив песенных текстов, аккордов, табулатур и нот


Tyr - Hail To The Hammer - таба, видео

Регистрация Запомнить меня
Войти через:  Facebook Google Twitter Vk Yandex Mail.ru

Tyr - Hail To The Hammer - таба, видео

Печатать
Просмотров: 229
Уроки эстрадного вокала в Санкт-Петербурге
                  Hail To The Hammer                    


                                                     Týr
Standard tuned 7 string

Guitar 1
      H        Q    Q       H         Q    Q     
E||----------------------|----------------------|
B||--/7------------------|----------------------|
G||------------4----5----|--6--------/4----2----|
D||--/4------------------|----------------------|
A||------------2----3----|--4--------/2----0----|
E||----------------------|----------------------|
B||----------------------|----------------------|


  H         Q    Q       H         Q    Q     
----------------------|----------------------|
----------------------|-----------/7----5----|
-----------/4----6----|--2-------------------|
--6-------------------|-----------/4----2----|
-----------/2----4----|--0-------------------|
--4-------------------|----------------------|
----------------------|----------------------|


  H         Q    Q       H         Q    Q     
----------------------|----------------------|
----------------------|-----------/9----7----|
--8--------/8----6----|--5-------------------|
----------------------|-----------/6----4----|
--6--------/6----4----|--3-------------------|
----------------------|----------------------|
----------------------|----------------------|


  W                   W                 
-------------------|-------------------|
--6----------------|--6----------------|
-------------------|-------------------|
--3----------------|--3----------------|
-------------------|-------------------|
-------------------|-------------------|
-------------------|-------------------|


   H        Q    Q       H         Q    Q     
----------------------|----------------------|
--/7------------------|----------------------|
------------4----5----|--6--------/4----2----|
--/4------------------|----------------------|
------------2----3----|--4--------/2----0----|
----------------------|----------------------|
----------------------|----------------------|


  H         Q    Q       H         Q    Q     
----------------------|----------------------|
----------------------|-----------/7----5----|
-----------/4----6----|--2-------------------|
--6-------------------|-----------/4----2----|
-----------/2----4----|--0-------------------|
--4-------------------|----------------------|
----------------------|----------------------|


  H         Q    Q       H         Q    Q     
----------------------|----------------------|
----------------------|-----------/9----7----|
--8--------/8----6----|--5-------------------|
----------------------|-----------/6----4----|
--6--------/6----4----|--3-------------------|
----------------------|----------------------|
----------------------|----------------------|


  W                   W                 
-------------------|-------------------|
--6----------------|--6----------------|
-------------------|-------------------|
--3----------------|--3----------------|
-------------------|-------------------|
-------------------|-------------------|
-------------------|-------------------|


  Q    E  E  Q    Q        Q    Q     H        E   
------------------------|-------------------------|
------------------------|-------------------------|
------------------------|-------------------------|
------------------------|-------------------------|
--9----2--3--4----------|-------------------------|
------------------4b----|--L----4b----2-----------|
------------------------|-------------------------|


  PM PM PM                                       
  E  E  E  Q.     Q.        H        Q     Q     
-------------------------|----------------------|
-------------------------|----------------------|
-------------------------|----------------------|
--4--3--4--1-------------|----------------------|
------------------4------|--7--------6b----4----|
-------------------------|----------------------|
-------------------------|----------------------|




Guitar 2


      H        Q    Q       H         Q    Q     
E||----------------------|----------------------|
B||----------------------|----------------------|
G||----------------------|----------------------|
D||--/4------------------|----------------------|
A||------------7----6----|--4--------/5----6----|
E||--/2------------------|----------------------|
B||------------5----4----|--2--------/3----4----|


  H         Q    Q       H         Q    Q     
----------------------|----------------------|
----------------------|----------------------|
----------------------|----------------------|
----------------------|--4--------/7----8----|
--7--------/7----8----|----------------------|
----------------------|--2--------/5----6----|
--5--------/5----6----|----------------------|


  H         Q    Q       H         Q    Q     
----------------------|----------------------|
----------------------|----------------------|
-----------/3---------|-----------/4----5----|
--9--------------5----|--6-------------------|
-----------/1---------|-----------/2----3----|
--7--------------3----|--4-------------------|
----------------------|----------------------|


  W                   W                 
-------------------|-------------------|
-------------------|-------------------|
--6----------------|--4----------------|
-------------------|-------------------|
--4----------------|--2----------------|
-------------------|-------------------|
-------------------|-------------------|


   H        Q    Q       H         Q    Q     
----------------------|----------------------|
----------------------|----------------------|
----------------------|----------------------|
--/4------------------|----------------------|
------------7----6----|--4--------/5----6----|
--/2------------------|----------------------|
------------5----4----|--2--------/3----4----|


  H         Q    Q       H         Q    Q     
----------------------|----------------------|
----------------------|----------------------|
----------------------|----------------------|
----------------------|--4--------/7----8----|
--7--------/7----8----|----------------------|
----------------------|--2--------/5----6----|
--5--------/5----6----|----------------------|


  H         Q    Q       H         Q    Q     
----------------------|----------------------|
----------------------|----------------------|
-----------/3---------|-----------/4----5----|
--9--------------5----|--6-------------------|
-----------/1---------|-----------/2----3----|
--7--------------3----|--4-------------------|
----------------------|----------------------|


  W                   W                 
-------------------|-------------------|
-------------------|-------------------|
--6----------------|--4----------------|
-------------------|-------------------|
--4----------------|--2----------------|
-------------------|-------------------|
-------------------|-------------------|


  Q    E  E  Q    Q        Q    Q     H        E   
------------------------|-------------------------|
------------------------|-------------------------|
------------------------|-------------------------|
------------------------|-------------------------|
--9----6--7--4----------|-------------------------|
------------------4b----|--L----1b----2-----------|
------------------------|-------------------------|


  E  E  E  Q.     Q.        H        Q     Q     
-------------------------|----------------------|
-------------------------|----------------------|
-------------------------|----------------------|
-------------------------|----------------------|
-------------------------|----------------------|
--2--1--2--4------2------|--0-------------------|
-------------------------|-----------4b----2----|


-------||
-------||
-------||
-------||
-------||
-------||
-------||


Bass


     H        Q    Q       H        Q    Q     
G||---------------------|---------------------|
D||--4--------2----1----|-----------0----1----|
A||---------------------|--4------------------|
E||---------------------|---------------------|
B||---------------------|---------------------|


  H        Q    Q       H        Q    Q     
---------------------|-----------2----3----|
--2--------2----3----|--4------------------|
---------------------|---------------------|
---------------------|---------------------|
---------------------|---------------------|


  H        Q    Q       H        Q    Q     
--4--------3----0----|--1--------4----5----|
---------------------|---------------------|
---------------------|---------------------|
---------------------|---------------------|
---------------------|---------------------|


  W                   W                 
--6----------------|--4----------------|
-------------------|-------------------|
-------------------|-------------------|
-------------------|-------------------|
-------------------|-------------------|


  H        Q    Q       H        Q    Q     
---------------------|---------------------|
--4--------2----1----|-----------0----1----|
---------------------|--4------------------|
---------------------|---------------------|
---------------------|---------------------|


  H        Q    Q       H        Q    Q     
---------------------|-----------2----3----|
--2--------2----3----|--4------------------|
---------------------|---------------------|
---------------------|---------------------|
---------------------|---------------------|


  H        Q    Q       H        Q    Q     
--4--------3----0----|--1--------4----5----|
---------------------|---------------------|
---------------------|---------------------|
---------------------|---------------------|
---------------------|---------------------|


  W                   W                 
--6----------------|--4----------------|
-------------------|-------------------|
-------------------|-------------------|
-------------------|-------------------|
-------------------|-------------------|


  Q    S  S  E  Q    Q       Q    S S E  H        E   
--------------------------|--------------------------|
--4----1h-2p-1------------|--------------------------|
----------------4----0----|--L-----------------------|
--------------------------|-------4-5-4--2-----------|
--------------------------|--------------------------|


  E  E  E  Q.     Q.        W                 
-------------------------|-------------------|
-------------------------|-------------------|
-------------------------|-------------------|
-------------------------|-------------------|
--7--6--7--9------7------|--5----------------|


-------------------||
-------------------||
-------------------||
-------------------||
-------------------||


Duration Legend
---------------
W - whole
H - half
Q - quarter
E - 8th
S - 16th
T - 32nd
X - 64th
. - note dotted
|-n-|  - n-tuplets


Tablature Legend
----------------
L - tied note
x - dead note
g - grace note
(n) - ghost note
> - accentuded note
NH - natural harmonic
AH - artificial harmonic
TH - tapped harmonic
SH - semi harmonic
PH - pitch harmonic
h - hammer on
p - pull off
b - bend
br - bendRelease
pb - preBend
pbr - preBendRelease
brb - bendReleaseBend
\n/ - tremolo bar dip
\n - tremolo bar dive
-/n - tremolo bar Release up
/n\ - tremolo bar inverted dip
/n - tremolo bar return
-\n - tremolo bar Release down
S - shift slide
s - legato slide
/ -  slide into from below or out of upwards
\ -  slide into from above or out of downwards
~ - vibrato
W - wide vibrato
tr - trill
TP - tremolo picking
T - tapping
S - slap
P - pop
< - fade in
^ - brush up
v - brush down
Добавлено: 30.04.2012
Другие материалы по этой песне:

Страница создана 27.03.2012
http://primanota.ru/tyr/hail-to-the-hammer-chords.htm
Привет, Гость.
Предлагаем пройти революционный курс по гитаре.
Подарок от PrimaNota.Ru, забирай!