PrimaNota.ru - самый крупный в мире бесплатный архив песенных текстов, аккордов, табулатур и нот


Trivium - Pull harder on the strings - таба, видео

Регистрация Запомнить меня
Войти через:  Facebook Google Twitter Vk Yandex Mail.ru

Trivium - Pull harder on the strings - таба, видео

Печатать
Просмотров: 133


                  Pull Harder on the Strings of Your Martyr


                                                                         Trivium
guitar



     W                   W                   W
E||-------------------|-------------------|-------------------|
B||-------------------|-------------------|-------------------|
G||-------------------|-------------------|-------------------|
D||-------------------|-------------------|-------------------|
A||-------------------|-------------------|-------------------|
D||-------------------|-------------------|-------------------|


  W                   E  S S S S S S S S S S S S E
-------------------|--------------------------------|
-------------------|--------------------------------|
-------------------|--------------------------------|
-------------------|--7--------------------------7--|
-------------------|--5--------------------------5--|
-------------------|-----0-0-0-0-0-0-0-0-0-0-0-0----|


  E  S S S S S S S S S S S S E     E  S S S S S S S S S S S S E
--------------------------------|--------------------------------|
--------------------------------|--------------------------------|
--------------------------------|--------------------------------|
--8--------------------------8--|--8--------------------------8--|
--5--------------------------5--|--6--------------------------5--|
-----0-0-0-0-0-0-0-0-0-0-0-0----|-----5-5-5-5-5-5-5-5-5-5-5-5----|


  E  S S S S S S S S S S S S S S    E  S S S S S S S S S S S S E
---------------------------------|--------------------------------|
---------------------------------|--------------------------------|
---------------------------------|--------------------------------|
--7------------------------------|--7--------------------------7--|
--6------------------------------|--5--------------------------5--|
-----7-7-7-7-7-7-7-7-7-7-7-7-7-7-|-----0-0-0-0-0-0-0-0-0-0-0-0----|


  E  S S S S S S S S S S S S E     E  S S S S S S S S S S S S E
--------------------------------|--------------------------------|
--------------------------------|--------------------------------|
--------------------------------|--------------------------------|
--8--------------------------8--|--8--------------------------8--|
--5--------------------------5--|--6--------------------------5--|
-----0-0-0-0-0-0-0-0-0-0-0-0----|-----5-5-5-5-5-5-5-5-5-5-5-5----|


  E  S S S S S S S S S S S S S S     Q     E   E   E   E   E   E
---------------------------------|--------------------------------|
---------------------------------|--------------------------------|
---------------------------------|--15----14--14--14--14--12--12--|
--7------------------------------|---x-----x---x---x---x---x---x--|
--6------------------------------|--13----12--12--12--12--10--10--|
-----7-7-7-7-7-7-7-7-7-7-7-7-7-7-|--------------------------------|


  W                    Q     E   E   E   E   E   E
-------------------|--------------------------------|
-------------------|--------------------------------|
--L----------------|--15----14--14--14--14--17--12--|
-------------------|---x-----x---x---x---x---x---x--|
--L----------------|--13----12--12--12--12--15--10--|
-------------------|--------------------------------|


  E   E   E   E  Q    Q        Q     E   E   E   E   E   E
---------------------------|--------------------------------|
---------------------------|--------------------------------|
--L--14--12--14--L----L----|--15----14--14--14--14--12--12--|
------x---x---x------------|---x-----x---x---x---x---x---x--|
--L--12--10--12--L----L----|--13----12--12--12--12--10--10--|
---------------------------|--------------------------------|


  W                    Q     E   E   E   E   E   E
-------------------|--------------------------------|
-------------------|--------------------------------|
--L----------------|--15----14--14--14--14--17--12--|
-------------------|---x-----x---x---x---x---x---x--|
--L----------------|--13----12--12--12--12--15--10--|
-------------------|--------------------------------|


  E   E   E   E  Q    Q       E  S S S S S S S S S S S S E
---------------------------|--------------------------------|
---------------------------|--------------------------------|
--L--14--12--14--L----L----|--------------------------------|
------x---x---x------------|--7--------------------------7--|
--L--12--10--12--L----L----|--5--------------------------5--|
---------------------------|-----0-0-0-0-0-0-0-0-0-0-0-0----|


  E  S S S S S S S S S S S S E     E  S S S S S S S S S S S S E
--------------------------------|--------------------------------|
--------------------------------|--------------------------------|
--------------------------------|--------------------------------|
--8--------------------------8--|--8--------------------------8--|
--5--------------------------5--|--6--------------------------5--|
-----0-0-0-0-0-0-0-0-0-0-0-0----|-----5-5-5-5-5-5-5-5-5-5-5-5----|


  E  S S S S S S S S S S S S S S    E  S S S S S S S S S S S S E
---------------------------------|--------------------------------|
---------------------------------|--------------------------------|
---------------------------------|--------------------------------|
--7------------------------------|--7--------------------------7--|
--6------------------------------|--5--------------------------5--|
-----7-7-7-7-7-7-7-7-7-7-7-7-7-7-|-----0-0-0-0-0-0-0-0-0-0-0-0----|


  E  S S S S S S S S S S S S E     E  S S S S S S S S S S S S E
--------------------------------|--------------------------------|
--------------------------------|--------------------------------|
--------------------------------|--------------------------------|
--8--------------------------8--|--8--------------------------8--|
--5--------------------------5--|--6--------------------------5--|
-----0-0-0-0-0-0-0-0-0-0-0-0----|-----5-5-5-5-5-5-5-5-5-5-5-5----|


  E  S S S S S S S S S S S S S S    E  E  Q     E   E   E   E
---------------------------------|-----------------------------|
---------------------------------|-----------------------------|
---------------------------------|-------------14--14--14--14--|
--7------------------------------|-----------------------------|
--6------------------------------|--0--1--0----12--12--12--12--|
-----7-7-7-7-7-7-7-7-7-7-7-7-7-7-|--0--1--0--------------------|


  E  E  E   E   E   E   E   E     E  E  Q     E   E   E   E
-------------------------------|-----------------------------|
-------------------------------|-----------------------------|
-----------12--12--12--12--12--|-------------14--14--14--14--|
-------------------------------|-----------------------------|
--0--1--0--10--10--10--10--10--|--0--1--0----12--12--12--12--|
--0--1--0----------------------|--0--1--0--------------------|


  E  E  E   E   E   E   E  E     E  E  E   E   E   E   E  E
------------------------------|------------------------------|
------------------------------|------------------------------|
-----------12--12--12--12-----|-----------14--14--14--14-----|
------------------------------|------------------------------|
--0--1--0--10--10--10--10--7--|--8--8--8--12--12--12--12--7--|
--0--1--0------------------7--|--8--8--8------------------7--|


  E  E  E   E   E   E   E  E     E  E  E   E   E   E   E  E
------------------------------|------------------------------|
------------------------------|------------------------------|
-----------12--12--12--12-----|-----------14--14--14--14-----|
------------------------------|------------------------------|
--8--8--8--10--10--10--10--7--|--8--8--8--12--12--12--12--8--|
--8--8--8------------------7--|--8--8--8------------------8--|


   E   E   E   E   E   E   E   E     E  E  Q     E   E   E   E
----------------------------------|-----------------------------|
----------------------------------|-----------------------------|
--------------17--17--17--17--17--|-------------14--14--14--14--|
----------------------------------|-----------------------------|
--10--10--10--15--15--15--15--15--|--0--1--0----12--12--12--12--|
--10--10--10----------------------|--0--1--0--------------------|


  E  E  E   E   E   E   E   E     E  E  Q     E   E   E   E
-------------------------------|-----------------------------|
-------------------------------|-----------------------------|
-----------12--12--12--12--12--|-------------14--14--14--14--|
-------------------------------|-----------------------------|
--0--1--0--10--10--10--10--10--|--0--1--0----12--12--12--12--|
--0--1--0----------------------|--0--1--0--------------------|


  E  E  E   E   E   E   E  E     E  E  E   E   E   E   E  E
------------------------------|------------------------------|
------------------------------|------------------------------|
-----------12--12--12--12-----|-----------14--14--14--14-----|
------------------------------|------------------------------|
--0--1--0--10--10--10--10--7--|--8--8--8--12--12--12--12--7--|
--0--1--0------------------7--|--8--8--8------------------7--|


  E  E  E   E   E   E   E  E     E  E  E   E   E   E   E  E
------------------------------|------------------------------|
------------------------------|------------------------------|
-----------12--12--12--12-----|-----------14--14--14--14-----|
------------------------------|------------------------------|
--8--8--8--10--10--10--10--7--|--8--8--8--12--12--12--12--8--|
--8--8--8------------------7--|--8--8--8------------------8--|


                                          PM
   E   E   E   E   E   E   E   E     Q    E  E  E  E  E  E
----------------------------------|--------------------------|
----------------------------------|--------------------------|
--------------17--17--17--17--17--|----------7---------------|
----------------------------------|--0-------7---------------|
--10--10--10--15--15--15--15--15--|--0-------5-----7---------|
--10--10--10----------------------|--0----0--------------8b--|


  E   E  Q    S  S  S S S  S S  S     E   E   E   E   E   E   E   E
----------------------------------|----------------------------------|
----------------------------------|----------------------------------|
----------------------------------|----------------------------------|
-----------------------------5h-7-|--10--10--10--10--10--10--10--10--|
-----10--8----7h-8p-7-5-7h-8------|---8---8---8---8---8---8---8---8--|
--L-------------------------------|---8---8---8---8---8---8---8---8--|


                                  PM
  E  E  E  E  E  E  E  E     Q    E  E  E  E  E  E
--------------------------|--------------------------|
--------------------------|--------------------------|
--------------------------|----------7---------------|
--7--7--7--8--8--8--7--7--|--0-------7---------------|
--5--5--5--5--5--5--5--5--|--0-------5-----7---------|
--5--5--5--5--5--5--5--5--|--0----0--------------8b--|


  E   E  Q    S  S  S S S  S S  S    E  E  E  E  E  E  E  E
----------------------------------|--------------------------|
----------------------------------|--------------------------|
----------------------------------|--------------------------|
-----------------------------5h-7-|--3--3--3--3--3--3--3--3--|
-----10--8----7h-8p-7-5-7h-8------|--3--3--3--3--3--3--3--3--|
--L-------------------------------|--3--3--3--3--3--3--3--3--|


  S S S S S S S  S S S S S S S S S    E  S S S S S S S S S S S S E
-------------------------------6-9-|--------------------------------|
--------------8-11-----------8-----|--------------------------------|
-------------------6-------9-------|--------------------------------|
------5-8------------8-7-8---------|--7--------------------------7--|
--4-7-----4-7----------------------|--5--------------------------5--|
-----------------------------------|-----0-0-0-0-0-0-0-0-0-0-0-0----|


  E  S S S S S S S S S S S S E     E  S S S S S S S S S S S S E
--------------------------------|--------------------------------|
--------------------------------|--------------------------------|
--------------------------------|--------------------------------|
--8--------------------------8--|--8--------------------------8--|
--5--------------------------5--|--6--------------------------5--|
-----0-0-0-0-0-0-0-0-0-0-0-0----|-----5-5-5-5-5-5-5-5-5-5-5-5----|


  E  S S S S S S S S S S S S S S    E  S S S S S S S S S S S S E
---------------------------------|--------------------------------|
---------------------------------|--------------------------------|
---------------------------------|--------------------------------|
--7------------------------------|--7--------------------------7--|
--6------------------------------|--5--------------------------5--|
-----7-7-7-7-7-7-7-7-7-7-7-7-7-7-|-----0-0-0-0-0-0-0-0-0-0-0-0----|


  E  S S S S S S S S S S S S E     E  S S S S S S S S S S S S E
--------------------------------|--------------------------------|
--------------------------------|--------------------------------|
--------------------------------|--------------------------------|
--8--------------------------8--|--8--------------------------8--|
--5--------------------------5--|--6--------------------------5--|
-----0-0-0-0-0-0-0-0-0-0-0-0----|-----5-5-5-5-5-5-5-5-5-5-5-5----|


  E  S S S S S S S S S S S S S S    E  E  Q     E   E   E   E
---------------------------------|-----------------------------|
---------------------------------|-----------------------------|
---------------------------------|-------------14--14--14--14--|
--7------------------------------|-----------------------------|
--6------------------------------|--0--1--0----12--12--12--12--|
-----7-7-7-7-7-7-7-7-7-7-7-7-7-7-|--0--1--0--------------------|


  E  E  E   E   E   E   E   E     E  E  Q     E   E   E   E
-------------------------------|-----------------------------|
-------------------------------|-----------------------------|
-----------12--12--12--12--12--|-------------14--14--14--14--|
-------------------------------|-----------------------------|
--0--1--0--10--10--10--10--10--|--0--1--0----12--12--12--12--|
--0--1--0----------------------|--0--1--0--------------------|


  E  E  E   E   E   E   E  E     E  E  E   E   E   E   E  E
------------------------------|------------------------------|
------------------------------|------------------------------|
-----------12--12--12--12-----|-----------14--14--14--14-----|
------------------------------|------------------------------|
--0--1--0--10--10--10--10--7--|--8--8--8--12--12--12--12--7--|
--0--1--0------------------7--|--8--8--8------------------7--|


  E  E  E   E   E   E   E  E     E  E  E   E   E   E   E  E
------------------------------|------------------------------|
------------------------------|------------------------------|
-----------12--12--12--12-----|-----------14--14--14--14-----|
------------------------------|------------------------------|
--8--8--8--10--10--10--10--7--|--8--8--8--12--12--12--12--8--|
--8--8--8------------------7--|--8--8--8------------------8--|


   E   E   E   E   E   E   E   E     E  E  Q     E   E   E   E
----------------------------------|-----------------------------|
----------------------------------|-----------------------------|
--------------17--17--17--17--17--|-------------14--14--14--14--|
----------------------------------|-----------------------------|
--10--10--10--15--15--15--15--15--|--0--1--0----12--12--12--12--|
--10--10--10----------------------|--0--1--0--------------------|


  E  E  E   E   E   E   E   E     E  E  Q     E   E   E   E
-------------------------------|-----------------------------|
-------------------------------|-----------------------------|
-----------12--12--12--12--12--|-------------14--14--14--14--|
-------------------------------|-----------------------------|
--0--1--0--10--10--10--10--10--|--0--1--0----12--12--12--12--|
--0--1--0----------------------|--0--1--0--------------------|


  E  E  E   E   E   E   E  E     E  E  E   E   E   E   E  E
------------------------------|------------------------------|
------------------------------|------------------------------|
-----------12--12--12--12-----|-----------14--14--14--14-----|
------------------------------|------------------------------|
--0--1--0--10--10--10--10--7--|--8--8--8--12--12--12--12--7--|
--0--1--0------------------7--|--8--8--8------------------7--|


  E  E  E   E   E   E   E  E     E  E  E   E   E   E   E  E
------------------------------|------------------------------|
------------------------------|------------------------------|
-----------12--12--12--12-----|-----------14--14--14--14-----|
------------------------------|------------------------------|
--8--8--8--10--10--10--10--7--|--8--8--8--12--12--12--12--8--|
--8--8--8------------------7--|--8--8--8------------------8--|


                                          PM
   E   E   E   E   E   E   E   E     Q    E  E  E  E  E  E
----------------------------------|--------------------------|
----------------------------------|--------------------------|
--------------17--17--17--17--17--|----------7---------------|
----------------------------------|--0-------7---------------|
--10--10--10--15--15--15--15--15--|--0-------5-----7---------|
--10--10--10----------------------|--0----0--------------8b--|


  E   E  Q    S  S  S S S  S S  S     E   E   E   E   E   E   E   E
----------------------------------|----------------------------------|
----------------------------------|----------------------------------|
----------------------------------|----------------------------------|
-----------------------------5h-7-|--10--10--10--10--10--10--10--10--|
-----10--8----7h-8p-7-5-7h-8------|---8---8---8---8---8---8---8---8--|
--L-------------------------------|---8---8---8---8---8---8---8---8--|


                                  PM
  E  E  E  E  E  E  E  E     Q    E  E  E  E  E  E
--------------------------|--------------------------|
--------------------------|--------------------------|
--------------------------|----------7---------------|
--7--7--7--8--8--8--7--7--|--0-------7---------------|
--5--5--5--5--5--5--5--5--|--0-------5-----7---------|
--5--5--5--5--5--5--5--5--|--0----0--------------8b--|


  E   E  Q    S  S  S S S  S S  S    E  E  E  E  E  E  E  E
----------------------------------|--------------------------|
----------------------------------|--------------------------|
----------------------------------|--------------------------|
-----------------------------5h-7-|--3--3--3--3--3--3--3--3--|
-----10--8----7h-8p-7-5-7h-8------|--3--3--3--3--3--3--3--3--|
--L-------------------------------|--3--3--3--3--3--3--3--3--|


                                           PM
  S S S S S S S  S S S S S S S S S    Q    E  E  E  E  E  E
-------------------------------6-9-|--------------------------|
--------------8-11-----------8-----|--------------------------|
-------------------6-------9-------|----------7---------------|
------5-8------------8-7-8---------|--0-------7---------------|
--4-7-----4-7----------------------|--0-------5-----7---------|
-----------------------------------|--0----0--------------8b--|


  E   E  Q    S  S  S S S  S S  S     E   E   E   E   E   E   E   E
----------------------------------|----------------------------------|
----------------------------------|----------------------------------|
----------------------------------|----------------------------------|
-----------------------------5h-7-|--10--10--10--10--10--10--10--10--|
-----10--8----7h-8p-7-5-7h-8------|---8---8---8---8---8---8---8---8--|
--L-------------------------------|---8---8---8---8---8---8---8---8--|


                                  PM
  E  E  E  E  E  E  E  E     Q    E  E  E  E  E  E
--------------------------|--------------------------|
--------------------------|--------------------------|
--------------------------|----------7---------------|
--7--7--7--8--8--8--7--7--|--0-------7---------------|
--5--5--5--5--5--5--5--5--|--0-------5-----7---------|
--5--5--5--5--5--5--5--5--|--0----0--------------8b--|


  E   E  Q    S  S  S S S  S S  S    E  E  E  E  E  E  E  E
----------------------------------|--------------------------|
----------------------------------|--------------------------|
----------------------------------|--------------------------|
-----------------------------5h-7-|--3--3--3--3--3--3--3--3--|
-----10--8----7h-8p-7-5-7h-8------|--3--3--3--3--3--3--3--3--|
--L-------------------------------|--3--3--3--3--3--3--3--3--|


  S S S S S S S  S S S S S S S S S    S S S S S S S S  S S S S S S E
-------------------------------6-9-|----------------------------------|
--------------8-11-----------8-----|----------------------------------|
-------------------6-------9-------|----------------------------------|
------5-8------------8-7-8---------|----------------------------------|
--4-7-----4-7----------------------|------5-----8-----12-----8-----5--|
-----------------------------------|--0-0---0-0---0-0----0-0---0-0----|


  S S S S S S S S S  S S  S S  S S  S    S S S S S S S S S S S S S S E
--------------------------------------|----------------------------------|
--------------------------------------|----------------------------------|
--------------------------------------|----------------------------------|
--------------------------------------|------------3-----5-----3-----2~--|
------5-----8-----5p-0-7p-0-8p-0-3p-0-|--1-1-4-1-1---1-1---1-1---1-1-----|
--0-0---0-0---0-0---------------------|----------------------------------|


  S S S S S S S S E  Q    E     S S S S S S S S  S S S S S S E
-----------------------------|----------------------------------|
-----------------------------|----------------------------------|
-----------------------------|----------------------------------|
------------3-----7----------|----------------------------------|
--1-1-4-1-1---1-1-7----------|------5-----8-----12-----8-----5--|
------------------7----------|--0-0---0-0---0-0----0-0---0-0----|


  S S S S S S S S S  S S  S S  S S  S    S S S S S S S S S S S S S S E
--------------------------------------|----------------------------------|
--------------------------------------|----------------------------------|
--------------------------------------|----------------------------------|
--------------------------------------|------------3-----5-----3-----2~--|
------5-----8-----5p-0-7p-0-8p-0-3p-0-|--1-1-4-1-1---1-1---1-1---1-1-----|
--0-0---0-0---0-0---------------------|----------------------------------|


  S S S S S S S S  S  S S  S S  S S  S    S S S S S S S S  S S S S S S E
---------------------------------------|----------------------------------|
---------------------------------------|----------------------------------|
---------------------------------------|----------------------------------|
------------3--------------------------|----------------------------------|
--1-1-4-1-1---1-1-10p-0-8p-0-7p-0-4p-0-|------5-----8-----12-----8-----5--|
---------------------------------------|--0-0---0-0---0-0----0-0---0-0----|


  S S S S S S S S S  S S  S S  S S  S    S S S S S S S S S S S S S S E
--------------------------------------|----------------------------------|
--------------------------------------|----------------------------------|
--------------------------------------|----------------------------------|
--------------------------------------|------------3-----5-----3-----2~--|
------5-----8-----5p-0-7p-0-8p-0-3p-0-|--1-1-4-1-1---1-1---1-1---1-1-----|
--0-0---0-0---0-0---------------------|----------------------------------|


  S S S S S S S S  S  S S  S S  S S  S    S S S S S S S S  S S S S S S E
---------------------------------------|----------------------------------|
---------------------------------------|----------------------------------|
---------------------------------------|----------------------------------|
------------3--------------------------|----------------------------------|
--1-1-4-1-1---1-1-10p-0-8p-0-7p-0-4p-0-|------5-----8-----12-----8-----5--|
---------------------------------------|--0-0---0-0---0-0----0-0---0-0----|


  S S S S S S S S S  S S  S S  S S  S    S S S S S S S S S S S S S S E
--------------------------------------|----------------------------------|
--------------------------------------|----------------------------------|
--------------------------------------|----------------------------------|
--------------------------------------|------------3-----5-----3-----2~--|
------5-----8-----5p-0-7p-0-8p-0-3p-0-|--1-1-4-1-1---1-1---1-1---1-1-----|
--0-0---0-0---0-0---------------------|----------------------------------|


  S S S S S S S S  S  S S  S S  S S  S    S S S S S S S S  S S S S S S E
---------------------------------------|----------------------------------|
---------------------------------------|----------------------------------|
---------------------------------------|----------------------------------|
------------3--------------------------|----------------------------------|
--1-1-4-1-1---1-1-10p-0-8p-0-7p-0-4p-0-|------5-----8-----12-----8-----5--|
---------------------------------------|--0-0---0-0---0-0----0-0---0-0----|


  S S S S S S S S S  S S  S S  S S  S    S S S S S S S S S S S S S S E
--------------------------------------|----------------------------------|
--------------------------------------|----------------------------------|
--------------------------------------|----------------------------------|
--------------------------------------|------------3-----5-----3-----2~--|
------5-----8-----5p-0-7p-0-8p-0-3p-0-|--1-1-4-1-1---1-1---1-1---1-1-----|
--0-0---0-0---0-0---------------------|----------------------------------|


  S S S S S S S S  S  S S  S S  S S  S      H         H
---------------------------------------|------------------------|
---------------------------------------|------------------------|
---------------------------------------|--9g6b--------7~--------|
------------3--------------------------|------------------------|
--1-1-4-1-1---1-1-10p-0-8p-0-7p-0-4p-0-|------------------------|
---------------------------------------|------------------------|


  |--3--|  |--3--|  |--3--|  |--3--|
  E  E  E  E  E  E  E  E  E  E  E  E     E   E  E  S S E  E  E  E
--------------------------------------|-----------------------------|
-----5-----5--6--5--6--8--6--5-----5--|-----------------------------|
--7-----7-----------------------7-----|--6b--L--L--6-7----------6b--|
--------------------------------------|----------------8--L--L------|
--------------------------------------|-----------------------------|
--------------------------------------|-----------------------------|


  E   E  E  S S E  E  E  E     S  S S  S S  S S  S S  S S  S S  S S S
----------------------------|-----------------------------------------|
----------------------------|-----------------------------------------|
--6b--L--L--6-7-------------|----------------------9-10-9----9--------|
----------------8--L--8--L--|-------7----7-10-7-10--------10---10-7---|
----------------------------|--8-10---10----------------------------8-|
----------------------------|-----------------------------------------|


  S S S S  T   T  T  T  S  S S  S S S S  S S S
----------10h-12-13-12-------------------------|
-----------------------13----------------------|
--------------------------10-9~-L-L-L----------|
--7--------------------------------------------|
----8-7-8-----------------------------7~-L-L-L-|
-----------------------------------------------|


  S S S S E   E   S S S T T S S S S
------------------------------------|
------------------------------------|
------6---6b--7b--6---6-------------|
--7-8---7-----------8---8-7-5-------|
------------------------------8-7-5-|
------------------------------------|


  |-3-| |-3-| |-3-| |-3-| |-3-| |-3-| |-3-| |-3-|
  S S S S S S S S S S S S S S S S S S S S S S S S
--------------------------------------------------|
--------------------------------------6-7---------|
--------------------6-7-6-------6-7-9-----7-6-7-9-|
--------------5-7-8-------8-7-8-------------------|
--4-5-7-5-7-8-------------------------------------|
--------------------------------------------------|


  S S S S S S S S S S S S S S S S    S S S S S S S S S S S S S S S S
----------------------------------|----------------------------------|
----------------------------------|----------------------------------|
----------------------------------|----------------------------------|
------------------3---------------|----------2-------5---------------|
------------------5---------------|----------4-------7---------------|
--0-0-0-0-0-0-0-0---0-0-0-0-0-0-0-|--0-0-0-0---0-0-0---0-0-0-0-0-0-0-|


  S S S S S S S S  S S S S  S S S S    S S S S S S S S S S S S  S S S S
------------------------------------|-----------------------------------|
------------------------------------|-----------------------------------|
------------------------------------|----------9---------------10-------|
----------8-------10-------12-------|----------x----------------x-------|
----------8--------8--------8-------|----------8----------------8-------|
--8-8-8-8---8-8-8----8-8-8----8-8-8-|--8-8-8-8---8-8-8-8-8-8-8----8-8-8-|


  S S S S S S S S S S S S S S S S    S S S S S S S S S S S S S S S S
----------------------------------|----------------------------------|
----------------------------------|----------------------------------|
----------------------------------|----------------------------------|
----------5---------------7-------|--5-------7---------------5-------|
----------3---------------3-------|--3-------3---------------3-------|
--3-3-3-3---3-3-3-3-3-3-3---3-3-3-|----3-3-3---3-3-3-3-3-3-3---3-3-3-|


   S  S  S  S  S  S  S  S  S  S  S  S  S  S  S  S
--------------------------------------------------|
--------------------------------------------------|
--------------------------------------------------|
--------------------------------------------------|
--------------10----------13----------------------|
--11-11-11-11-11-11-11-11-11-11-11-11-11-11-11-11-|


   S  S  S  S  S  S  S  S  S  S  S  S  S  S  S  S
--------------------------------------------------|
--------------------------------------------------|
--------------------------------------------------|
--------------------------11-11-11-11-11-11-11-11-|
--12----------------------10-10-10-10-10-10-10-10-|
--11-11-11-11-11-11-11-11-11-11-11-11-11-11-11-11-|


            PULL                             
  E  E  E   E                                 E   E   E   E
-------------------------------------------------------------|
-------------------------------------------------------------|
-----------17--------------------------------17--17--17--17--|
--0--1--0----------------------------------------------------|
--0--1--0--15--------------------------------15--15--15--15--|
--0--1--0----------------------------------------------------|


            HARDER                      
  E  E  E   E                            E   E   E   E
--------------------------------------------------------|
--------------------------------------------------------|
-----------14---------------------------14--14--14--14--|
--0--1--0-----------------------------------------------|
--0--1--0--12---------------------------12--12--12--12--|
--0--1--0-----------------------------------------------|


            STRINGS                
  E  E  E   E                       E   E   E   E
---------------------------------------------------|
---------------------------------------------------|
-----------17----------------------17--17--17--17--|
--0--1--0------------------------------------------|
--0--1--0--15----------------------15--15--15--15--|
--0--1--0------------------------------------------|


            MARTYR                    
  E  E  E   E                          E   E   E  E
-----------------------------------------------------|
-----------------------------------------------------|
-----------14-------------------------14--14--14-----|
--0--1--0-----------------------------------------7--|
--0--1--0--12-------------------------12--12--12--7--|
--0--1--0-----------------------------------------7--|


  E  E  E   E   E   E   E  E     E  E  E   E   E   E   E  E
------------------------------|------------------------------|
------------------------------|------------------------------|
-----------14--14--14--14-----|-----------12--12--12--12-----|
--8--8--8------------------7--|--8--8--8------------------7--|
--8--8--8--12--12--12--12--7--|--8--8--8--10--10--10--10--7--|
--8--8--8------------------7--|--8--8--8------------------7--|


  E  E  E   E   E   E   E  E      E   E   E   E   E   E   E   E
------------------------------|----------------------------------|
------------------------------|----------------------------------|
-----------14--14--14--14-----|--------------17--17--17--17--17--|
--8--8--8------------------8--|--10--10--10----------------------|
--8--8--8--12--12--12--12--8--|--10--10--10--15--15--15--15--15--|
--8--8--8------------------8--|--10--10--10----------------------|


  E  E  Q     E   E   E   E     E  E  E   E   E   E   E   E
-----------------------------|-------------------------------|
-----------------------------|-------------------------------|
-------------14--14--14--14--|-----------12--12--12--12--12--|
-----------------------------|-------------------------------|
--0--1--0----12--12--12--12--|--0--1--0--10--10--10--10--10--|
--0--1--0--------------------|--0--1--0----------------------|


  E  E  Q     E   E   E   E     E  E  E   E   E   E   E  E
-----------------------------|------------------------------|
-----------------------------|------------------------------|
-------------14--14--14--14--|-----------12--12--12--12-----|
-----------------------------|------------------------------|
--0--1--0----12--12--12--12--|--0--1--0--10--10--10--10--7--|
--0--1--0--------------------|--0--1--0------------------7--|


  E  E  E   E   E   E   E  E     E  E  E   E   E   E   E  E
------------------------------|------------------------------|
------------------------------|------------------------------|
-----------14--14--14--14-----|-----------12--12--12--12-----|
------------------------------|------------------------------|
--8--8--8--12--12--12--12--7--|--8--8--8--10--10--10--10--7--|
--8--8--8------------------7--|--8--8--8------------------7--|


  E  E  E   E   E   E   E  E      E   E   E   E   E   E   E   E
------------------------------|----------------------------------|
------------------------------|----------------------------------|
-----------14--14--14--14-----|--------------17--17--17--17--17--|
------------------------------|----------------------------------|
--8--8--8--12--12--12--12--8--|--10--10--10--15--15--15--15--15--|
--8--8--8------------------8--|--10--10--10----------------------|


       PM
  Q    E  E  E  E  E  E      E   E  Q    S  S  S S S  S S  S
--------------------------|----------------------------------|
--------------------------|----------------------------------|
----------7---------------|----------------------------------|
--0-------7---------------|-----------------------------5h-7-|
--0-------5-----7---------|-----10--8----7h-8p-7-5-7h-8------|
--0----0--------------8b--|--L-------------------------------|


   E   E   E   E   E   E   E   E     E  E  E  E  E  E  E  E
----------------------------------|--------------------------|
----------------------------------|--------------------------|
----------------------------------|--------------------------|
--10--10--10--10--10--10--10--10--|--7--7--7--8--8--8--7--7--|
---8---8---8---8---8---8---8---8--|--5--5--5--5--5--5--5--5--|
---8---8---8---8---8---8---8---8--|--5--5--5--5--5--5--5--5--|


       PM
  Q    E  E  E  E  E  E      E   E  Q    S  S  S S S  S S  S
--------------------------|----------------------------------|
--------------------------|----------------------------------|
----------7---------------|----------------------------------|
--0-------7---------------|-----------------------------5h-7-|
--0-------5-----7---------|-----10--8----7h-8p-7-5-7h-8------|
--0----0--------------8b--|--L-------------------------------|


  E  E  E  E  E  E  E  E     S S S S S S S  S S S S S S S S S
--------------------------|-------------------------------6-9-|
--------------------------|--------------8-11-----------8-----|
--------------------------|-------------------6-------9-------|
--3--3--3--3--3--3--3--3--|------5-8------------8-7-8---------|
--3--3--3--3--3--3--3--3--|--4-7-----4-7----------------------|
--3--3--3--3--3--3--3--3--|-----------------------------------|


       PM
  Q    E  E  E  E  E  E      E   E  Q    S  S  S S S  S S  S
--------------------------|----------------------------------|
--------------------------|----------------------------------|
----------7---------------|----------------------------------|
--0-------7---------------|-----------------------------5h-7-|
--0-------5-----7---------|-----10--8----7h-8p-7-5-7h-8------|
--0----0--------------8b--|--L-------------------------------|


   E   E   E   E   E   E   E   E     E  E  E  E  E  E  E  E
----------------------------------|--------------------------|
----------------------------------|--------------------------|
----------------------------------|--------------------------|
--10--10--10--10--10--10--10--10--|--7--7--7--8--8--8--7--7--|
---8---8---8---8---8---8---8---8--|--5--5--5--5--5--5--5--5--|
---8---8---8---8---8---8---8---8--|--5--5--5--5--5--5--5--5--|


       PM
  Q    E  E  E  E  E  E      E   E  Q    S  S  S S S  S S  S
--------------------------|----------------------------------|
--------------------------|----------------------------------|
----------7---------------|----------------------------------|
--0-------7---------------|-----------------------------5h-7-|
--0-------5-----7---------|-----10--8----7h-8p-7-5-7h-8------|
--0----0--------------8b--|--L-------------------------------|


  E  E  E  E  E  E  E  E     S S S S S S S  S S S S S S S S S
--------------------------|-------------------------------6-9-|
--------------------------|--------------8-11-----------8-----|
--------------------------|-------------------6-------9-------|
--3--3--3--3--3--3--3--3--|------5-8------------8-7-8---------|
--3--3--3--3--3--3--3--3--|--4-7-----4-7----------------------|
--3--3--3--3--3--3--3--3--|-----------------------------------|


  E  S S S S S S S S S S S S E     E  S S S S S S S S S S S S E
--------------------------------|--------------------------------|
--------------------------------|--------------------------------|
--------------------------------|--------------------------------|
--7--------------------------7--|--8--------------------------8--|
--5--------------------------5--|--5--------------------------5--|
-----0-0-0-0-0-0-0-0-0-0-0-0----|-----0-0-0-0-0-0-0-0-0-0-0-0----|


  E  S S S S S S S S S S S S E     E  S S S S S S S S S S S S S S
--------------------------------|---------------------------------|
--------------------------------|---------------------------------|
--------------------------------|---------------------------------|
--8--------------------------8--|--7------------------------------|
--6--------------------------5--|--6------------------------------|
-----5-5-5-5-5-5-5-5-5-5-5-5----|-----7-7-7-7-7-7-7-7-7-7-7-7-7-7-|


  E  S S S S S S S S S S S S E     E  S S S S S S S S S S S S E
--------------------------------|--------------------------------|
--------------------------------|--------------------------------|
--------------------------------|--------------------------------|
--7--------------------------7--|--8--------------------------8--|
--5--------------------------5--|--5--------------------------5--|
-----0-0-0-0-0-0-0-0-0-0-0-0----|-----0-0-0-0-0-0-0-0-0-0-0-0----|


  E  S S S S S S S S S S S S E     E  E  Q    H
--------------------------------|----------------------|-----------||
--------------------------------|----------------------|-----------||
--------------------------------|----------------------|-----------||
--8--------------------------8--|--7-------------------|-----------||
--6--------------------------5--|--6-------------------|-----------||
-----5-5-5-5-5-5-5-5-5-5-5-5----|----------------------|-----------||




Duration Legend
---------------
W - whole
H - half
Q - quarter
E - 8th
S - 16th
T - 32nd
X - 64th
. - note dotted
|-n-|  - n-tuplets


Tablature Legend
----------------
L - tied note
x - dead note
g - grace note
(n) - ghost note
 - accentuded note
NH - natural harmonic
AH - artificial harmonic
TH - tapped harmonic
SH - semi harmonic
PH - pitch harmonic
h - hammer on
p - pull off
b - bend
br - bendRelease
pb - preBend
pbr - preBendRelease
brb - bendReleaseBend
n/ - tremolo bar dip
n - tremolo bar dive
-/n - tremolo bar Release up
/n - tremolo bar inverted dip
/n - tremolo bar return
-n - tremolo bar Release down
S - shift slide
s - legato slide
/ -  slide into from below or out of upwards
 -  slide into from above or out of downwards
~ - vibrato
W - wide vibrato
tr - trill
TP - tremolo picking
T - tapping
S - slap
P - pop
 - fade in
^ - brush up
v - brush down

tabs by josh carter.

Добавлено: 23.02.2014
Другие материалы по этой песне:
  • Аккорды и текст

Страница создана 23.02.2014
http://primanota.ru/trivium/pull-harder-on-the-strings-chords.htm
Привет, Гость.
Предлагаем пройти революционный курс по гитаре.
Подарок от PrimaNota.Ru, забирай!