PrimaNota.ru - самый крупный в мире бесплатный архив песенных текстов, аккордов, табулатур и нот


Trivium - Dead And Gone - таба, видео

Регистрация Запомнить меня
Войти через:  Facebook Google Twitter Vk Yandex Mail.ru

Trivium - Dead And Gone - таба, видео

Печатать
Просмотров: 156
Уроки эстрадного вокала в Санкт-Петербурге
Artist: Trivium
Song: Dead and Gone
Tabbed by Lorcan Ward
Tuning: Drop Ab ( Ab Eb Ab Db Gb Bb Eb ) 

I have wrote the tab in 6 string format.

Solo starts at 2:26

|---------------------------------------------12tr13---16tr17---19tr20-|
|---------------------------9tr10---12tr13-----------------------------|
|------------------9tr10-----------------------------------------------|
|--6tr7---9tr10--------------------------------------------------------|
|----------------------------------------------------------------------|
|----------------------------------------------------------------------|

|---------------------------17-19-20-19-17-----------------------------|
|--21b22----21b22~~~~~~\-------------------20-18-17-20-18-17-----------|
|------------------------------------------------------------20-19-17--|
|----------------------------------------------------------------------|
|----------------------------------------------------------------------|
|----------------------------------------------------------------------|

|----------------------------------------------------------------------|
|------------------------22-17-18-22-17-18-22-18-17-22-17-18-22-17-18--|
|--19b20-19--17--19~~~~------------------------------------------------|
|----------------------------------------------------------------------|
|----------------------------------------------------------------------|
|----------------------------------------------------------------------|

|----------------------------------------------------------------------|
|--22-18-17-22-18-17-16-22-18-17-18------------------------------------|
|-------------------------------------19b21r19b21r19~~~~\--------------|
|----------------------------------------------------------------------|
|----------------------------------------------------------------------|
|----------------------------------------------------------------------|

|----------------------------------------------------------------------|
|----------------------------------------------------------------------|
|--/14--13--14~------10--9--10-------------------9\--------------------|
|---------------------------------10--9--10------PH--------------------|
|----------------------------------------------------------------------|
|----------------------------------------------------------------------|

|----------------------------------------------------------------------|
|---------------------10-----------------------------------------------|
|--9--8--7------7--8--.----8--7------7--8------------------------------|
|--.--.--.--10--.--.-------.--.--10--.--.------------------------------|
|-----------.--------------------.-------------------------------------|
|----------------------------------------------------------------------|

|--------------------------------------------------17\-----------------|
|--------------------------------------------18-18---------------------|
|--------------------------------16-16-19-19---------------------------|
|--------------12-12-15-15/18-18---------------------------------------|
|--11-11-14-14---------------------------------------------------------|
|----------------------------------------------------------------------|
Добавлено: 17.02.2016
Другие материалы по этой песне:

Страница создана 17.02.2016
http://primanota.ru/trivium/dead-and-gone-chords.htm
Привет, Гость.
Предлагаем пройти революционный курс по гитаре.
Подарок от PrimaNota.Ru, забирай!