PrimaNota.ru - самый крупный в мире бесплатный архив песенных текстов, аккордов, табулатур и нот


Toxic Holocaust - Future Shock - таба, видео

Регистрация Запомнить меня
Войти через:  Facebook Google Twitter Vk Yandex Mail.ru

Toxic Holocaust - Future Shock - таба, видео

Печатать
Просмотров: 123
-------------------------------------------------------------------------------
                             Future Shock - Toxic Holocaust
-------------------------------------------------------------------------------
Tabbed by: MeTAL SOLDIER
E-mail:

Tuning: DGCFAD

intro/main riff
d|--------------------------------------------------------------------------|
A|--------------------------------------------------------------------------|
F|--------------------------------------------------------------------------|
C|---7-------8-------7-------8--7/8--7\5------------------------------------|
G|---7-------8-------7-------8--7/8--7\5------------------------------------|
D|---5--0-0--6--0-0--5--0-0--6--5/6--5\3------------------------------------|
        * *     * *     * *

d|--------------------------------------------------------------------------|
A|--------------------------------------------------------------------------|
F|--------------------------------------------------------------------------|
C|---7-------8-------7-------8--7/8--7\5------------------------------------|
G|---7-------8-------7-------8--7/8--7\5------------------------------------|
D|---5--0-0--6--0-0--5--0-0--6--5/6--5\3------------------------------------|
        * *     * *     * *

d|--------------------------------------------------------------------------|
A|--------------------------------------------------------------------------|
F|--------------------------------------------------------------------------|
C|---7-------8-------7-------8--7/8--7\5------------------------------------|
G|---7-------8-------7-------8--7/8--7\5------------------------------------|
D|---5--0-0--6--0-0--5--0-0--6--5/6--5\3------------------------------------|
        * *     * *     * *

d|--------------------------------------------------------------------------|
A|--------------------------------------------------------------------------|
F|--------------------------------------------------------------------------|
C|---7-------8-------7-------8--7/8--7\5------------------------------------|
G|---7-------8-------7-------8--7/8--7\5------------------------------------|
D|---5--0-0--6--0-0--5--0-0--6--5/6--5\3------------------------------------|
        * *     * *     * *


d|--------------------------------------------------------------------------|
A|--------------------------------------------------------------------------|
F|--------------------------------------------------------------------------|
C|------------------------7--7-7-7--7---------------------------------------|
G|---5--0--3--0--3--5--8--7--7-7-7--7---------------------------------------|
D|------------------------5--5-5-5--5---------------------------------------|X4 
                             * * *

d|--------------------------------------------------------------------------|
A|--------------------------------------------------------------------------|
F|--------------------------------------------------------------------------|
C|---7-------8-------7-------8--7/8--7\5------------------------------------|
G|---7-------8-------7-------8--7/8--7\5------------------------------------|
D|---5--0-0--6--0-0--5--0-0--6--5/6--5\3------------------------------------|X4
        * *     * *     * *

d|--------------------------------------------------------------------------|
A|--------------------------------------------------------------------------|
F|--5~----------------------------------------------------------------------|
C|--5~--3-3----5------------------------------------------------------------|
G|--3~--3-3----5------------------------------------------------------------|
D|------1-1----3------------------------------------------------------------|
        * *


d|--------------------------------------------------------------------------|
A|--------------------------------------------------------------------------|
F|--------------------------------------------------------------------------|
C|---7--7----7/8--7--7----10\8--7--7----5--7--7-----------------------------|
G|---7--7----7/8--7--7----10\8--7--7----5--7--7-----------------------------|
D|---5--5----5/6--5--5-----8\6--5--5----3--5--5-----------------------------|



d|--------------------------------------------------------------------------|
A|--------------------------------------------------------------------------|
F|--------------------------------------------------------------------------|
C|---7--7----7/8--7--7----10/12--7--7----5--7--7----------------------------|
G|---7--7----7/8--7--7----10/12--7--7----5--7--7----------------------------|
D|---5--5----5/6--5--5-----8/10--5--5----3--5--5----------------------------|



d|--------------------------------------------------------------------------|
A|--------------------------------------------------------------------------|
F|--7~---------5------------------------------------------------------------|
C|--7~----5-5--5--7-------8-------7-------7h8p7h8p7h8p7--7-------8-------7--|
G|--5~----5-5--3--7-------8-------7----------------------7-------8-------7--|
D|--------3-3-----5--0-0--6--0-0--5--0-0-----------------5--0-0--6--0-0--5--|
          * *        * *     * *     * *


d|--------------------------------------------------------------------------|
A|--------------------------------------------------------------------------|
F|--7~--9~-------5----------------------------------------------------------|
C|--7~--9~--5-5--5--7-------8-------7-------8--7/8--7\5---------------------|
G|--5~--7~--5-5--3--7-------8-------7-------8--7/8--7\5---------------------|
D|----------3-3-----5--0-0--6--0-0--5--0-0--6--5/6--5\3---------------------|
            * *

d|--------------------------------------------------------------------------|
A|--------------------------------------------------------------------------|
F|--------------------------------------------------------------------------|
C|---7-------8-------7-------8--7/8--7\5------------------------------------|
G|---7-------8-------7-------8--7/8--7\5------------------------------------|
D|---5--0-0--6--0-0--5--0-0--6--5/6--5\3------------------------------------|
        * *     * *     * *

d|--------------------------------------------------------------------------|
A|--------------------------------------------------------------------------|
F|--------------------------------------------------------------------------|
C|---7-------8-------7-------8--7/8--7\5------------------------------------|
G|---7-------8-------7-------8--7/8--7\5------------------------------------|
D|---5--0-0--6--0-0--5--0-0--6--5/6--5\3------------------------------------|
        * *     * *     * *

d|--------------------------------------------------------------------------|
A|--------------------------------------------------------------------------|
F|-------------------------------------5--5---------------------------------|
C|---7-------8-------7-------8--7------5--5--5------------------------------|
G|---7-------8-------7-------8--7------3--3--5------------------------------|
D|---5--0-0--6--0-0--5--0-0--6--5------------3------------------------------|
        * *     * *     * *



d|--------------------------------------------------------------------------|
A|--------------------------------------------------------------------------|
F|--------------------------------------------------------------------------|
C|---7--7----7/8--7--7----10\8--7--7----5--7--7-----------------------------|
G|---7--7----7/8--7--7----10\8--7--7----5--7--7-----------------------------|
D|---5--5----5/6--5--5-----8\6--5--5----3--5--5-----------------------------|



d|--------------------------------------------------------------------------|
A|--------------------------------------------------------------------------|
F|--------------------------------------------------------------------------|
C|---7--7----7/8--7--7----10/12--7--7----5--7--7----------------------------|
G|---7--7----7/8--7--7----10/12--7--7----5--7--7----------------------------|
D|---5--5----5/6--5--5-----8/10--5--5----3--5--5----------------------------|




d|--------------------------------------------------------------------------|
A|--------------------------------------------------------------------------|
F|--7~---------5------------------------------------------------------------|
C|--7~----5-5--5--7-------8-------7-------7h8p7h8p7h8p7--7-------8-------7--|
G|--5~----5-5--3--7-------8-------7----------------------7-------8-------7--|
D|--------3-3-----5--0-0--6--0-0--5--0-0-----------------5--0-0--6--0-0--5--|
          * *        * *     * *     * *


d|--------------------------------------------------------------------------|
A|--------------------------------------------------------------------------|
F|--7~--9~-------5----------------------------------------------------------|
C|--7~--9~--5-5--5--7-------------------------------------------------------|
G|--5~--7~--5-5--3--7--0-0-0-0-0-0-0-0-0-0-0-0-0-0-0-0-0-0-0-0-0------------|
D|----------3-3-----5-------------------------------------------------------|
            * *


d|--------------------------------------------------------------------------|
A|--------------------------------------------------------------------------|
F|-----10-9-----7---------------------10-9-----7----------------------------|
C|---7-------10-----9---------------7-------10-----9------------------------|
G|----------------7----7h8p7-5-------------------7----7h8p7-5---------------|
D|--------------------------------------------------------------------------|



d|--------------------------------------------------------------------------|
A|--------------------------------------------------------------------------|
F|-----10-9-----7---------------------10-9-----7----------------------------|
C|---7-------10-----9---------------7-------10-----9------------------------|
G|----------------7----7h8p7-5-------------------7----7h8p7-5---------------|
D|--------------------------------------------------------------------------|



d|--------------------------------------------------------------------------|
A|--------------------------------------------------------------------------|
F|-----8-7-----5----------------------8-7-----5-----------------------------|
C|---5-------8------7---------------5-------8------7------------------------|
G|----------------5----5h6p5-3-------------------5----5h6p5-3---------------|
D|--------------------------------------------------------------------------|



d|--------------------------------------------------------------------------|
A|--------------------------------------------------------------------------|
F|-----8-7-----5----------------------8-7-----5-----------------------------|
C|---5-------8------7---------------5-------8------7------------------------|
G|----------------5----5h6p5-3-------------------5----5h6p5-3---------------|
D|--------------------------------------------------------------------------|



d|--------------------------------------------------------------------------|
A|--------------------------------------------------------------------------|
F|--------------------------------------------------------------------------|
C|--5--5-5-5-5-5---7-7-8---5--5-5-5-5-5---8-8-5-----------------------------|
G|--5--5-5-5-5-5---7-7-8---5--5-5-5-5-5---8-8-5-----------------------------|
D|--3--3-3-3-3-3---5-5-6---3--3-3-3-3-3---6-6-3-----------------------------|
       * * * * *              * * * * *

d|--------------------------------------------------------------------------|
A|--------------------------------------------------------------------------|
F|--------------------------------------------------------------------------|
C|---7-------8-------7-------8--7/8--7\5------------------------------------|
G|---7-------8-------7-------8--7/8--7\5------------------------------------|
D|---5--0-0--6--0-0--5--0-0--6--5/6--5\3------------------------------------|
        * *     * *     * *


d|--------------------------------------------------------------------------|
A|--------------------------------------------------------------------------|
F|--------------------------------------------------------------------------|
C|---7-------8-------7-------8-------7--------------------------------------|
G|---7-------8-------7-------8-------7--------------------------------------|
D|---5--0-0--6--0-0--5--0-0--6--0-0--5--------------------------------------|
        * *     * *     * *     * *

************************************

| /   slide up
| \   slide down
| h   hammer-on
| p   pull-off
| ~   vibrato
| +   harmonic
| x   Mute note
| b   Bend
| pb  Pre-bend
| br  Bend release
| pbr Pre-bend release
| brb Bend release bend

************************************

Добавлено: 13.08.2013
Другие материалы по этой песне:
  • Аккорды и текст

Страница создана 13.08.2013
http://primanota.ru/toxic-holocaust/future-shock-chords.htm
Привет, Гость.
Предлагаем пройти революционный курс по гитаре.
Подарок от PrimaNota.Ru, забирай!