PrimaNota.ru - самый крупный в мире бесплатный архив песенных текстов, аккордов, табулатур и нот


Toxic Holocaust - Time To Die - таба, бас-таба, видео

Регистрация Запомнить меня
Войти через:  Facebook Google Twitter Vk Yandex Mail.ru

Toxic Holocaust - Time To Die - таба, бас-таба, видео

Печатать
Просмотров: 116
-------------------------------------------------------------------------------
                             TIME TO DIE - Toxic Holocaust
-------------------------------------------------------------------------------
Tabbed by: Warbringer
Email: elderscrolls167@hotmail.com please email suggestions and advice to improve this tab
Words and Music by toxic Holocaust

Tuning: Standard E tuning

Bass Intro
Main riff play 6 times
e|---------------------------------------------------------------------------|
B|---------------------------------------------------------------------------|
G|---------------------------------------------------------------------------|
D|---------6-6-6-------------------------------------------------------------|
A|-5-5--5--4-4-4-5-5--5--3-3-3-----------------------------------------------|
E|-3-3--3--------3-3--3--1-1-1-----------------------------------------------|

Chorus riff play 4 times
e|---------------------------------------------------------------------------|
B|---------------------------------------------------------------------------|
G|---------------------------------------------------------------------------|
D|-5-7-9-10-9-7--------------------------------------------------------------|
A|-3-5-7-8--7-5---8-8--7-7-7-------------------------------------------------|
E|----------------6-6--5-5-5-------------------------------------------------|

play main riff 4 times
play chorus riff 4 times
the main riff is played 4 times under the solo
after the solo play main riff 4 times
play chorus riff 4 times

outro play 4 times play the last power chord only 4th time
e|---------------------------------------------------------------------------|
B|---------------------------------------------------------------------------|
G|---------------------------------------------------------------------------|
D|---------6-6-6-------------------------------------------------------------|
A|-5-5--5--4-4-4-5-5--5-5-3-3-3----5-----------------------------------------|
E|-3-3--3--------3-3--3-3-1-1-1----3-----------------------------------------|



| /  slide up
| \  slide down
| h  hammer-on
| p  pull-off
| ~  vibrato
| +  harmonic
| x  Mute note
===============================================================================
Добавлено: 02.03.2012
Другие материалы по этой песне:

Страница создана 02.03.2012
http://primanota.ru/toxic-holocaust/time-to-die-chords.htm
Привет, Гость.
Предлагаем пройти революционный курс по гитаре.
Подарок от PrimaNota.Ru, забирай!