PrimaNota.ru - самый крупный в мире бесплатный архив песенных текстов, аккордов, табулатур и нот


Toxic Holocaust - Feedback, Blood, and Distortion - текст песни, таба, видео

Регистрация Запомнить меня
Войти через:  Facebook Google Twitter Vk Yandex Mail.ru

Toxic Holocaust - Feedback, Blood, and Distortion - текст песни, таба, видео

Печатать
Просмотров: 174
                                     Feedback, Blood And Distortion

                                            Toxic Holocaust

Intro:


D||----------------------------------|----------------------------------|
A||----------------------------------|----------------------------------|
F||----------------------------------|----------------------------------|
C||----------------------------------|----------------------------------|
G||-3--3-3-3-3-3-3-3-3-3-6/5---8/6---|-3--3-3-3-3-3-3-3-3-3-6/5---8/6---|
D||-1--1-1-1-1-1-1-1-1-1-4/3-0-6/4-0-|-1--1-1-1-1-1-1-1-1-1-4/3-0-6/4-0-|
       * * * * * * * * *     *     *      * * * * * * * * *     *     *

                                x3
----------------------------------|
----------------------------------|
----------------------------------|
----------------------------------|
-3--3-3-3-3-3-3-3-3-3-6/5---8/6---|
-1--1-1-1-1-1-1-1-1-1-4/3-0-6/4-0-|
    * * * * * * * * *     *     *


D||------------------------------------||
A||------------------------------------||
F||------------------------------------||
C||------------------------------------||
G||-3--3-3-3-3-3-3-3-3-3-6/5---8/6---3-||
D||-1--1-1-1-1-1-1-1-1-1-4/3-0-6/4-0-1-||
       * * * * * * * * *     *     *

Riff 1:

                          x3
||-------------------------||----------------||
||-------------------------||----------------||
||-------------------------||----------------||
||-6-5-3-5-----------------||-/8-8-8---------||
||-4-3-1-3-3-3-3-3-3-3-3-3-||-/6-6-6-6-6--6--||
||-------------------------||--------4-4--4--||
           * * * * * * * *

                          x3
||-------------------------||---------------||
||-------------------------||---------------||
||-------------------------||---------------||
||-6-5-3-5-----------------||-/8-8-8--------||
||-4-3-1-3-3-3-3-3-3-3-3-3-||-/6-6-6-6-6-6--||
||-------------------------||--------4-4-4--||
           * * * * * * * *

Riff 2:


||-----------------------------------|
||-----------------------------------|
||-----------------------------------|
||------------------------------8----|
||-5-5-5-5-5-5-5-5-5-5-5-5-5-/8-6----|
||-3-3-3-3-3-3-3-3-3-3-3-3-3-/6------|
A burst of confusion rocks your mind

||-----------------------------------|
||-----------------------------------|
||-----------------------------------|
||------------------------------8----|
||-5-5-5-5-5-5-5-5-5-5-5-5-5-/8-6----|
||-3-3-3-3-3-3-3-3-3-3-3-3-3-/6------|
 As the shadows from the warhead fills the sky

||------------------------------------------------------|
||------------------------------------------------------|
||------------------------------------------------------|
||----------------------------------------------------8-|
||-5-------------5-------------5-------------5-----/8-6-|
||-3-3-3-3-3-3-3-3-3-3-3-3-3-3-3-3-3-3-3-3-3-3-3-3-/6---|
     * * * * * *   * * * * * *   * * * * * *   * *
   Endless rioting of the masses
     as we heed Satan's call

|-------------------------------------------|
|-------------------------------------------|
|-------------------------------------------|
|-------------------------------------------|
|-5-------------5-------------/8-8-8-6-6-6--|
|-3-3-3-3-3-3-3-3-3-3-3-3-3-3-/6-6-6-4-4-4--|
    * * * * * *   * * * * * *
   as we fan the flames higher
    and disintegrate you all.
 
Riff 1:

                          x3
||-------------------------||---------------||
||-------------------------||---------------||
||-------------------------||---------------||
||-6-5-3-5-----------------||-/8-8-8--------||
||-4-3-1-3-3-3-3-3-3-3-3-3-||-/6-6-6-6-6-6--||
||-------------------------||--------4-4-4--||
           * * * * * * * *

                          x3
||-------------------------||---------------||
||-------------------------||---------------||
||-------------------------||---------------||
||-6-5-3-5-----------------||-/8-8-8--------||
||-4-3-1-3-3-3-3-3-3-3-3-3-||-/6-6-6-6-6-6--||
||-------------------------||--------4-4-4--||
           * * * * * * * *

Riff 2b:


||-----------------------------------|
||-----------------------------------|
||-----------------------------------|
||------------------------------8----|
||-5-5-5-5-5-5-5-5-5-5-5-5-5-/8-6----|
||-3-3-3-3-3-3-3-3-3-3-3-3-3-/6------|
 The blood of the victims drench the walls

||-----------------------------------|
||-----------------------------------|
||-----------------------------------|
||------------------------------8----|
||-5-5-5-5-5-5-5-5-5-5-5-5-5-/8-6----|
||-3-3-3-3-3-3-3-3-3-3-3-3-3-/6------|
 But every night they still fill the halls

||------------------------------------------------------|
||------------------------------------------------------|
||------------------------------------------------------|
||----------------------------------------------------8-|
||-5-------------5-------------5-------------5-----/8-6-|
||-3-3-3-3-3-3-3-3-3-3-3-3-3-3-3-3-3-3-3-3-3-3-3-3-/6---|
     * * * * * *   * * * * * *   * * * * * *   * *
  Coming for the chaos to witness and partake
        in the fight for their lives

|------------------------------------------|
|------------------------------------------|
|------------------------------------------|
|------------------------------------------|
|-5-------------5-------------6-6-6-8-8-8--|
|-3-3-3-3-3-3-3-3-3-3-3-3-3-3-4-4-4-6-6-6--| <--**little change**
    * * * * * *   * * * * * *
      and the wall of sonic hate.


Chorus:

                                 x2
||-----------------------------------|
||-----------------------------------|
||-----------------------------------|
||-5-5--5-5/8-6-3-5-5--5-5-5---------|
||-3-3--3-3/6-4-1-3-3--3-3-3-3-3-3-3-|
||-----------------------------------|


                                 x2
||-----------------------------------|
||-----------------------------------|
||-----------------------------------|
||-5-5--5-5/8-6-3-5-5--5-5-5---------|
||-3-3--3-3/6-4-1-3-3--3-3-3-3-3-3-3-|
||-----------------------------------|
   Feedback, Blood, and Distortion...
   Feedback, Blood, and Distortion...

Riff 3:

||------------------------------------------------------------------------------|
||------------------------------------------------------------------------------|
||------------------------------------------------------------------------------|
||-----------------------------------------5-3----------------------------------|
||-3-3-3-3-3-3-3-3--3-3-3-3-3-3-3--3-3-3-3-3-1-6--6-6-6-6-6-6-6-6-6-6-6-6-6-6-6-|
||-1-1-1-1-1-1-1-1--1-1-1-1-1-1-1--1-1-1-1-----4--4-4-4-4-4-4-4-4-4-4-4-4-4-4-4-|

---------------------------------------|
---------------------------------------|
---------------------------------------|
---------------------------------------|
-------5-5-5-5-5-5-5-5-6-6-6-6-8-8-8-8-|
-4h6p4-3-3-3-3-3-3-3-3-4-4-4-4-6-6-6-6-|


                          x3
||-------------------------||----------------||
||-------------------------||----------------||
||-------------------------||----------------||
||-6-5-3-5-----------------||-/8-8-8---------||
||-4-3-1-3-3-3-3-3-3-3-3-3-||-/6-6-6-6-6--6--||
||-------------------------||--------4-4--4--||
           * * * * * * * *

Repeat
Riff 2b:

In the gutter we're fighting for our lives
Our metal weapons gleaming in the night
Your fate is in our hands
your funeral's just begun
as the weak are cast aside
and the soldiers are marching on

Chorus:
Feedback, Blood, and Distortion...
Feedback, Blood, and Distortion...


Riff 3:

||------------------------------------------------------------------------------|
||------------------------------------------------------------------------------|
||------------------------------------------------------------------------------|
||-----------------------------------------5-3----------------------------------|
||-3-3-3-3-3-3-3-3--3-3-3-3-3-3-3--3-3-3-3-3-1-6--6-6-6-6-6-6-6-6-6-6-6-6-6-6-6-|
||-1-1-1-1-1-1-1-1--1-1-1-1-1-1-1--1-1-1-1-----4--4-4-4-4-4-4-4-4-4-4-4-4-4-4-4-|

---------------------------------------|
---------------------------------------|
---------------------------------------|
---------------------------------------|
-------5-5-5-5-5-5-5-5-6-6-6-6-8-8-8-8-|
-4h6p4-3-3-3-3-3-3-3-3-4-4-4-4-6-6-6-6-|
                                 * * *

Riff 4:

                          x3
||-------------------------|
||-------------------------|
||-------------------------|
||-------------------------|
||-3-5-5-3-6-6-3-5-5-6-6-6-|
||-1-3-3-1-4-4-1-3-3-4-4-4-|
 ...And overdose of death...

||---------------------------|
||---------------------------|
||---------------------------|
||---------------------------|
||-3-5-5-3-6-6-3-5-5-6-6-5-3-|
||-1-3-3-1-4-4-1-3-3-4-4-3-1-|
  ...And overdose of death...

Chorus:

                                 x4
||-----------------------------------|
||-----------------------------------|
||-----------------------------------|
||-5-5--5-5/8-6-3-5-5--5-5-5---------|
||-3-3--3-3/6-4-1-3-3--3-3-3-3-3-3-3-|
||-----------------------------------|
...Feedback, Blood, and Distortion...


Outro:

||------------------------------------------------------------------------------|
||------------------------------------------------------------------------------|
||------------------------------------------------------------------------------|
||-----------------------------------------5-3----------------------------------|
||-3-3-3-3-3-3-3-3--3-3-3-3-3-3-3--3-3-3-3-3-1-6--6-6-6-6-6-6-6-6-6-6-6-6-6-6-6-|
||-1-1-1-1-1-1-1-1--1-1-1-1-1-1-1--1-1-1-1-----4--4-4-4-4-4-4-4-4-4-4-4-4-4-4-4-|

---------------------------------------------------|
---------------------------------------------------|
---------------------------------------------------|
---------------------------------------------------|
-------5-5-5-5-5-5-5-5-6-6-6-6-8-8-8-8-10~/\/\/\/\-|
-4h6p4-3-3-3-3-3-3-3-3-4-4-4-4-6-6-6-6-8~~/\/\/\/\-|
                                 * * *
Добавлено: 20.05.2015
Другие материалы по этой песне:
  • Аккорды и текст

Страница создана 29.07.2014
http://primanota.ru/toxic-holocaust/feedback-blood-and-distortion-chords.htm
Привет, Гость.
Предлагаем пройти революционный курс по гитаре.
Подарок от PrimaNota.Ru, забирай!