PrimaNota.ru - самый крупный в мире бесплатный архив песенных текстов, аккордов, табулатур и нот


Toxic Holocaust - City Of A Million Graves - текст песни, таба, видео

Регистрация Запомнить меня
Войти через:  Facebook Google Twitter Vk Yandex Mail.ru

Toxic Holocaust - City Of A Million Graves - текст песни, таба, видео

Печатать
Просмотров: 168
                                City Of A Million Graves

                                     Toxic Holocaust

Intro:

Guitar 1:
D||-----------------------------------------------------------|
A||-----------------------------------------------------------|
F||-----------------------------------------------------10-10-|
C||-----------------------------------------------------8--8--|
G||-2---------------------------------------------------8--8--|
D||-0-0-0-0-0-0-0-0-0-0-0-0-0-0-0-0-0-0-0-0-0-0-0-0-0-0-------|
|     * * * * * * * * * * * * * * * * * * * * * * * * *
|Guitar 2:
D||-----------------------------------------------------------|
A||-----------------------------------------------------------|
F||-----------------------------------------------------------|
C||-----------------------------------------------------------|
G||-2~~-------------------------------------------------------|
D||-0~~-------------------------------------------------------|


Guitar 1:                                                    x3
|-------------------------------------------------------------|
|-------------------------------------------------------------|
|-------------------------------------------------------------|
|-------------------------------------------------------------|
|-2-----------------------------------------------------3-3---|
|-0-0-0-0-0-0-0-0-0-0-0-0-0-0-0-0-0-0-0-0-0-0-0-0-0-0-0-1-1---|
|   * * * * * * * * * * * * * * * * * * * * * * * * * *
|Guitar 2:
|-------------------------------------------------------------|
|-------------------------------------------------------------|
|-------------------------------------------------------------|
|-------------------------------------------------------------|
|-(2)---------------------------------------------------3-3---|
|-(0)----------------------x///////////////////////////-1-1---|


D||-----------------------------------------------------------|
A||-----------------------------------------------------------|
F||-----------------------------------------------------10-10-|
C||-----------------------------------------------------8--8--|
G||-2---------------------------------------------------8--8--|
D||-0-0-0-0-0-0-0-0-0-0-0-0-0-0-0-0-0-0-0-0-0-0-0-0-0-0-------|
      * * * * * * * * * * * * * * * * * * * * * * * * *

|-------------------------------------|
|-------------------------------------|
|-------------------------------------|
|-------------------------------------|
|-2---------------------5--3--2-------|
|-0-0-0-0-0-0-0-0-0-0-0-3--1--0--x///-|
    * * * * * * * * * *

Riff 1:

Guitar 1                               x2
D||-------------------|-----------------|
A||-------------------|-----------------|
F||---2p0-3p0-2p0-3-2-|---2p0-3p0-6-5-3-|
C||---2p0-3p0-2p0-3-2-|---2p0-3p0-6-5-3-|
G||-0-----------------|-0---------------|
D||-------------------|-----------------|
|   *                   *
|
|Guitar 2                              x2
D||-------------------|-----------------|
A||-------------------|-----------------|
F||-------------------|-----------------|
C||-2-----------------|-----------------|
G||-0-----------------|-----------------|
D||-------------------|-----------------|

                                 x4
|-----------------|---------------|
|-----------------|---------------|
|---2p0-3p0-2-3-2-|---2p0-3-6-5-3-|
|---2p0-3p0-2-3-2-|---2p0-3-6-5-3-|
|-0---------------|-0-------------|
|-----------------|---------------|
  *                 *

Riff 2:


D||-------------------------------------------------|
A||-------------------------------------------------|
F||-------------------------------------------------|
C||-7-------------7-------------8-7-8-7-------------|
G||-5-5-5-5-5-5-5-5-5-5-5-5-5-5-6-5-6-5-5-5-5-5-5-5-|
D||-------------------------------------------------|
      * * * * * *   * * * * * *         * * * * * *
We arrived by the hundreds, a gang of the dead

|--------------------------------------------------|
|--------------------------------------------------|
|--------------------------------------------------|
|-5-------------5-------------3-3-3-5--------------|
|-3-3-3-3-3-3-3-3-3-3-3-3-3-3-1-1-1-3-3-3-3-3-3-3--|
|--------------------------------------------------|
    * * * * * *   * * * * * *         * * * * * *
 Donning our weapons and cycles of steel

D||-------------------------------------------------|
A||-------------------------------------------------|
F||-------------------------------------------------|
C||-7-------------7-------------8-7-8-7-------------|
G||-5-5-5-5-5-5-5-5-5-5-5-5-5-5-6-5-6-5-5-5-5-5-5-5-|
D||-------------------------------------------------|
      * * * * * *   * * * * * *         * * * * * *
   Deformed and demented and living in filth

|----------------------------------------|
|----------------------------------------|
|----------------------------------------|
|-5-------------5-------------3-3-3-5-3~-|
|-3-3-3-3-3-3-3-3-3-3-3-3-3-3-1-1-1-3----|
|----------------------------------------|
    * * * * * *   * * * * * *
Riding through cities lusting for death...yeah
                                 x2
|-----------------|---------------|
|-----------------|---------------|
|---2p0-3p0-2-3-2-|---2p0-3-6-5-3-|
|---2p0-3p0-2-3-2-|---2p0-3-6-5-3-|
|-0---------------|-0-------------|
|-----------------|---------------|
  *                 *

Chorus:

D||--------------------------------------------|
A||--------------------------------------------|
F||--------------------------------------------|
C||-10-10--10-8-8--8-7-8-8-8-8-7-7-7-7-5-5-5-5-|
G||-8--8---8--6-6--6-5-------------------------|
D||--------------------------------------------|
Violence, destruction and hate
You've entered the city of graves

|-----------------------------------------|
|-----------------------------------------|
|-----------------------------------------|
|-3-3--3-5-3-5-7--------------------------|
|-1-1--1-3-1-3-5-5-5-5-5-5-5-5-5-5-5-5-5--|
|-----------------------------------------|
                 * * * * * * * * * * * *
Where gangs are ruling the waste
Where one million couldn't be saved

Kill or Die


Riff 3:

Guitar 1:
D||------------------------------------------------|
A||------------------------------------------------|
F||------------------------------------------------|
C||------------------------------------------------|
G||-------------------------------------------/8\--|
D||-0---0-0-0-0-0---0-0-0-0-0---0-0-0-0-0---0-/6\--|
|   *   * * * * *   * * * * *   * * * * *   *
|
|Guitar 2:
D||------------------------------------------------|
A||------------------------------------------------|
F||------------------------------------------------|
C||------------------------------------------------|
G||-2~---------------------------------------------|
D||-0~---------------------------------------------|

Guitar 1:
|--------------------------------------------------|
|--------------------------------------------------|
|--------------------------------------------------|
|--------------------------------------------------|
|-------------------------------------------3------|
|-0---0-0-0-0-0---0-0-0-0-0---0-0-0-0-0---0-1------|
| *   * * * * *   * * * * *   * * * * *   *
|
|Guitar 2:
|--------------------------------------------------|
|--------------------------------------------------|
|--------------------------------------------------|
|--------------------------------------------------|
|-8~----------------------3~----------10~----------|
|-6~----------------------1~----------8~~----------|

Riding Through Filth

D||------------------------------------------------|
A||------------------------------------------------|
F||------------------------------------------------|
C||------------------------------------------------|
G||-------------------------------------------/8\--|
D||-0---0-0-0-0-0---0-0-0-0-0---0-0-0-0-0---0-/6\--|
    *   * * * * *   * * * * *   * * * * *   *
                                            x3
---------------------------------------------|-----------|
---------------------------------------------|-----------|
---------------------------------------------|-----------|
---------------------------------------------|-----------|
-------------------------------------------3-|-2~--------|
-0---0-0-0-0-0---0-0-0-0-0---0-0-0-0-0---0-1-|-0~-x\\\\--|
 *   * * * * *   * * * * *   * * * * *   *

Riff 4:

Guitar 1:                                        x2
D||--------------------------|--------------------||-------------|
A||--------------------------|--------------------||-------------|
F||-5h6--5h6p5--6--5h6p5--3--|-5h6--5h6p5--6--6-8-||-------------|
C||-5h6--5h6p5--6--5h6p5--3--|-5h6--5h6p5--6--6-8-||-8-----10--8-|
G||--------------------------|--------------------||-6--8--8---6-|
D||--------------------------|--------------------||----6--------|
|
|Guitar 2:                                       x2
D||--------------------------|--------------------||-------------|
A||--------------------------|--------------------||-------------|
F||--------------------------|--------------------||-------------|
C||-2------------------------|-2------------------||-8-----10--8-|
G||-0------------------------|-0------------------||-6--8--8---6-|
D||--------------------------|--------------------||----6--------|

Chorus 2:

D||--------------------------------------------|
A||--------------------------------------------|
F||--------------------------------------------|
C||-10-10--10-8-8--8-7-8-8-8-8-7-7-7-7-5-5-5-5-|
G||-8--8---8--6-6--6-5-------------------------|
D||--------------------------------------------|
Violence, destruction and hate

|-------------------------------|
|-------------------------------|
|-------------------------------|
|-3-3--3-5-3-5-7----------------|
|-1-1--1-3-1-3-5-5-5-5-5-5-5-5--|
|-------------------------------|
                 * * * * * * *
Where gangs are ruling the waste

D||--------------------------------------------|
A||--------------------------------------------|
F||--------------------------------------------|
C||-10-10--10-8-8--8-7-8-8-8-8-7-7-7-7-5-5-5-5-|
G||-8--8---8--6-6--6-5-------------------------|
D||--------------------------------------------|
You've entered the city of graves

|-------------------------------|
|-------------------------------|
|-------------------------------|
|-3-3--3-5-3-5-7----------------|
|-1-1--1-3-1-3-5-5-5-5-5-5-5-5--|
|-------------------------------|
                 * * * * * * *
Where one million couldn't be saved

D||--------------------------------------------|
A||--------------------------------------------|
F||--------------------------------------------|
C||-10-10--10-8-8--8-7-8-8-8-8-7-7-7-7-5-5-5-5-|
G||-8--8---8--6-6--6-5-------------------------|
D||--------------------------------------------|
You've entered the city of graves

|-------------------------------|
|-------------------------------|
|-------------------------------|
|-3-3--3-5-3-5-7----------------|
|-1-1--1-3-1-3-5----------------|
|-------------------------------|
Where one million couldn't be saved

Outro:
                                                 x2
D||-----------------------------------------------|
A||-----------------------------------------------|
F||-----------------------------------------------|
C||-7--8-7-----------------7--8-7--------3--------|
G||-5--6-5--6-5-3-5-3---3--5--6-5--3-5-6---6-5-3--|
D||-------------------6---------------------------|

D||----------------------------------|
A||----------------------------------|
F||----------------------------------|
C||-7--8-7-----------------7--8-7\---|
G||-5--6-5--6-5-3-5-3---3--5--6-5\---|
D||-------------------6--------------|

|----------------------------------------------------|
|----------------------------------------------------|
|----------------------------------------------------|
|-3---------------5---------------7-7-5-7--7-7-5-7\--|
|-1-1-1-1-1-1-1-1-3-3-3-3-3-3-3-3-5-5-3-5--5-5-3-5\--|
|----------------------------------------------------|
    * * * * * * *   * * * * * * *
Добавлено: 20.05.2015
Другие материалы по этой песне:
  • Аккорды и текст

Страница создана 23.08.2014
http://primanota.ru/toxic-holocaust/city-of-a-million-graves-chords.htm
Привет, Гость.
Предлагаем пройти революционный курс по гитаре.
Подарок от PrimaNota.Ru, забирай!