PrimaNota.ru - самый крупный в мире бесплатный архив песенных текстов, аккордов, табулатур и нот


Toxic Holocaust - Death From Above - текст песни, таба, видео

Регистрация Запомнить меня
Войти через:  Facebook Google Twitter Vk Yandex Mail.ru

Toxic Holocaust - Death From Above - текст песни, таба, видео

Печатать
Просмотров: 210
                            Death From  Above
                             Toxic Holocaust

Intro:

D||------------------------------------|
A||------------------------------------|
F||------------------------------------|
C||--7-6--6-6------------4-4-4--2-2-2--|
G||--5-4--4-4--4-4-4-4-4-2-2-2--0-0-0--|
D||------------------------------------|
               * * * * *

|------------------------------|
|------------------------------|
|---------------------6--------|
|--7-6--6-6-------------7-5-4--|
|--5-4--4-4--4-4-4-4-4---------|
|------------------------------|
             * * * * *  
Riff 1:

D|---------------------------|
A|---------------------------|
F|---------------------------|
C|-4-2-----------------------|
G|-2-0-4-4-4-4-4-4-4-4-4-4-4-|
D|-----2-2-2-2-2-2-2-2-2-2-2-|
         * * * * * * * * * *

|-----------------------------|
|-----------------------------|
|-----------------------------|
|-2-4-2-----------------------|
|-0-2-0-4-4-4-4-4-4-4-4-4-4-4-|
|-------2-2-2-2-2-2-2-2-2-2-2-|
          * * * * * * * * * *
Riff 1b:
                                                  x4
D|--------------------------------------------------|-------|
A|--------------------------------------------------|-------|
F|--------------------------------------------------|-------|
C|-2-4-2--------------------------------------------|-2-4-2-|
G|-0-2-0--4-------------4-------------4-------------|-0-2-0-|
D|--------2-2-2-2-2-2-2-2-2-2-2-2-2-2-2-2-2-2-2-2-2-|-------|
            * * * * * *   * * * * * *   * * * * * *

         The future's here, the time is now
        now it's time to strike (Time to strike)
We'll fight 'em off til the end or we're gonna die (Gonna Die)
    Surrender now or pay the price, we're coming after you

         Planes are bombing from the skies
         and the tanks are pushing through

Riff 2:

|------------------------------------|
|------------------------------------|
|------------------------------------|
|--7-6--6-6------------4-4-4--2-2-2--|
|--5-4--4-4--4-4-4-4-4-2-2-2--0-0-0--|
|------------------------------------|
             * * * * *
   Waiting - This is the final hour
 Destruction - A preplanned commission
                              x2
|------------------------------||------------------------------------------------|
|------------------------------||------------------------------------------------|
|---------------------6--------||------------------------------------------------|
|--7-6--6-6-------------7-5-4--||-4-2--------------------------------------------|
|--5-4--4-4--4-4-4-4-4---------||-2-0--4-------------4-------------4-------------|
|------------------------------||------2-2-2-2-2-2-2-2-2-2-2-2-2-2-2-2-2-2-2-2-2-|
             * * * * *                   * * * * * *   * * * * * *   * * * * * *
    Hate - We're all gonna die
Fate - Death is in our hands tonight
                                                  x5
D|--------------------------------------------------|-------|
A|--------------------------------------------------|-------|
F|--------------------------------------------------|-------|
C|-2-4-2--------------------------------------------|-2-4-2-|
G|-0-2-0--4-------------4-------------4-------------|-0-2-0-|
D|--------2-2-2-2-2-2-2-2-2-2-2-2-2-2-2-2-2-2-2-2-2-|-------|
            * * * * * *   * * * * * *   * * * * * *
Here's the time to take control, now we gotta strike (Gotta strike)
  Move ahead, conquer all, we're going out tonight (Out tonight)
      Send the troops on the ground and bombers in the sky
        Guarantee a violent end attack them by surprise

|------------------------------------|
|------------------------------------|
|------------------------------------|
|--7-6--6-6------------4-4-4--2-2-2--|
|--5-4--4-4--4-4-4-4-4-2-2-2--0-0-0--|
|------------------------------------|
             * * * * *
   Waiting - This is the final hour
 Destruction - A preplanned commission
                              x2
|------------------------------||------------------------------------------------|
|------------------------------||------------------------------------------------|
|---------------------6--------||------------------------------------------------|
|--7-6--6-6-------------7-5-4--||-4-2--------------------------------------------|
|--5-4--4-4--4-4-4-4-4---------||-2-0--4-------------4-------------4-------------|
|------------------------------||------2-2-2-2-2-2-2-2-2-2-2-2-2-2-2-2-2-2-2-2-2-|
             * * * * *                   * * * * * *   * * * * * *   * * * * * *
    Hate - We're all gonna die
Fate - There will be death from above

D|--------------------------------------------------|-------|
A|--------------------------------------------------|-------|
F|--------------------------------------------------|-------|
C|-2-4-2--------------------------------------------|-2-4-2-|
G|-0-2-0--4-------------4-------------4-------------|-0-2-0-|
D|--------2-2-2-2-2-2-2-2-2-2-2-2-2-2-2-2-2-2-2-2-2-|-------|
            * * * * * *   * * * * * *   * * * * * *

Riff 3:

D|----------------------------------|----------------------------------|
A|----------------------------------|----------------------------------|
F|----------------------------------|----------------------------------|
C|-9-11--11-11-11-11----------------|-9-11--11-11-11-11----------------|
G|-7-9---9--9--9--9--12-12-12-9-9-9-|-7-9---9--9--9--9--12-12-12-7-7-7-|
D|-------------------10-10-10-7-7-7-|-------------------10-10-10-5-5-5-|
We'll push past the gates cause we're getting through
Slaughter and maim til our mission is through

|----------------------------------|
|----------------------------------|
|----------------------------------|
|-9-11--11-11-11-11----------------|
|-7-9---9--9--9--9--12-12-12-9-9-9-|
|-------------------10-10-10-7-7-7-|
Catch them off guard or until we have won

|--------------------------------------|-------------------|
|--------------------------------------|-------------------|
|--------------------------------------|-------------------|
|-9-11--11-11-11-11--------------------|-------------------|
|-7-9---9--9--9--9--11-11-11-12-11-7-4-|-4-4-4-4-4-4-4-4-4-|
|-------------------9--9--9--10-9--5-2-|-2-2-2-2-2-2-2-2-2-|
                                         * * * * * * * * *
Bombers above, the bloodshed has only begun

Solo:

Guitar 1:
D||---------------------------------------------|
A||--17~~~--17-17-17-17-17-17-17-17-17~~~/\/\/\-|
F||--16b18--18-18-18-18-18-18-18-18-16b18/\/\/\-|
C||---------------------------------------------|
G||---------------------------------------------|
D||---------------------------------------------|

---------------------------14h15p14h15p14h15p14h15p14h15p14h15p14h15p14h15p14-|
-17b---17b---17b----17b-------------------------------------------------------|
-16b18-16b18-16b18--16b18-----------------------------------------------------|
------------------------------------------------------------------------------|
------------------------------------------------------------------------------|
------------------------------------------------------------------------------|

|-15-14------------------------------|
|-------15-12b14~~--12b14~~--13b14\--|
|------------------------------------|
|------------------------------------|
|------------------------------------|
|------------------------------------|

Rhythm guitar:
                                       x4
||--------------------------------------|
||--------------------------------------|
||--------------------------------------|
||--------------------------------------|
||--4~--------------4-------------5-5-5-|
||--2~-----2-2-2-2--2-----2-2-2-2-3-3-3-|
           * * * *        * * * *
Riff 3:

D|----------------------------------|----------------------------------|
A|----------------------------------|----------------------------------|
F|----------------------------------|----------------------------------|
C|-9-11--11-11-11-11----------------|-9-11--11-11-11-11----------------|
G|-7-9---9--9--9--9--12-12-12-9-9-9-|-7-9---9--9--9--9--12-12-12-7-7-7-|
D|-------------------10-10-10-7-7-7-|-------------------10-10-10-5-5-5-|
On through the night we hear the call
The sirens are sounding as the victims they fall

|----------------------------------|
|----------------------------------|
|----------------------------------|
|-9-11--11-11-11-11----------------|
|-7-9---9--9--9--9--12-12-12-9-9-9-|
|-------------------10-10-10-7-7-7-|
A battle from Hell fought in the sky

|-------------------------------------|
|-------------------------------------|
|-------------------------------------|
|-9-11--11-11-11-11-------------------|
|-7-9---9--9--9--9--11-11-11-12-11-7--|
|-------------------9--9--9--10-9--5--|                                      
Continue the fire until everyone dies

Outro:
                                                    x2
D|-------------------------------------------|-------|
A|-------------------------------------------|-------|
F|-------------------------------------------|-------|
C|-------------------------------------------|-2-4-2-|
G|-4-------------4-------------4-------------|-0-2-0-|
D|-2-2-2-2-2-2-2-2-2-2-2-2-2-2-2-2-2-2-2-2-2-|-------|
     * * * * * *   * * * * * *   * * * * * *
                              x4
|-----------------------|-------||---|
|-----------------------|-------||---|
|-----------------------|-------||---|
|-----------------------|-2-4-2-||---|
|-4-4-4-4-4-4-4-4-4-4-4-|-0-2-0-||-4-|
|-2-2-2-2-2-2-2-2-2-2-2-|-------||-2-|
    * * * * * * * * * *
Добавлено: 20.05.2015
Вам также может быть интересно:
Другие материалы по этой песне:
  • Аккорды и текст

Страница создана 22.09.2014
http://primanota.ru/toxic-holocaust/death-from-above-chords.htm
Привет, Гость.
Предлагаем пройти революционный курс по гитаре.
Подарок от PrimaNota.Ru, забирай!