PrimaNota.ru - самый крупный в мире бесплатный архив песенных текстов, аккордов, табулатур и нот


Toby Fox - Wrong Enemy - бас-таба, видео

Регистрация Запомнить меня
Войти через:  Facebook Google Twitter Vk Yandex Mail.ru

Toby Fox - Wrong Enemy - бас-таба, видео

Печатать
Просмотров: 108
Авторы музыки: Toby Fox

--------------------------------------------------------------------------
                         Undertale - Wrong Enemy !?
--------------------------------------------------------------------------
Tabbed by: David Keeler
E-mail: davidakeeler@gmail.com
Reference Video: https://www.youtube.com/watch?v=gTCSQevpuOg
Tuning: Drop C

Part I
F|---------------------------------------------------------------------------|
C|---------------------------------------------------------------------------|
G|-2-2--1------1-2-2--1------1-2-2--1------1-2-2--1------1-2-2--1------2-4-4-|
C|--------4-4-----------4-4-----------4-4-----------4-4-----------4-4--------|

F|-----------------------------------------------------------------------------|
C|-----------------------------------------------------------------------------|
G|-4------4-2-2--1------1-2-2--1------1-2-2--1------1-2-2--1------1-2-2--1-----|
C|---6-6-----------4-4-----------4-4-----------4-4-----------4-4-----------4-4-|
                               
F|-------------------------------------------| Once you play Ending I go back to the
C|-------------------------------------------| start of Part I and play Ending II
G|-1-2-2--1------1-2-2--1-----2-4-4--4-------| ,then continue to Part II.
C|----------4-4-----------4-4----------6-6---|
         Ending I                            Ending II
F|--------------------|----------------------------------------------------|
C|--------------------|----------------------------------------------------|
G|-8-6----------7-5---|-8-6----------7-5----------6-4----------5-3---------|
C|-----10-----------9-|-----10-----------9------------8------------7-----7-|

Part II (this part should be played with a swing)
F|---------------------------------------------------------------------------------|
C|---------------------------------------------------------------------------------|
G|------------0-0--2-2--3-3--2-2--0-0------------1-1--4-4--6-6--7-7--6-6--4-4--1-1-|
C|-\0-0--3-3---------------------------3-3--4-4------------------------------------|

F|----------------------------------------| Once you play Ending I of Part II head back to
C|----------------------------------------| the start of Part II and play Ending II. 
G|-----------0-0--2-2--3-3--2-2--0-0------| The slide is not repeated a second time.
C|-0-0--3-3---------------------------3-3-|
                 Ending I                                       Ending II
F|--------------------------------------------|--------------------------------------------|
C|--------------------------------------------|--------------------------------------------|
G|--------------------------------------------|------6---------4---------2---------0-------|
C|-1-1--5-5--8-8--10-10--6-6--8-8--10-10--6-6-|-6---------4---------2---------0---------1--|



| /  slide up
| \  slide down
| h  hammer-on
| p  pull-off
| ~  vibrato
| +  harmonic
| x  Mute note
Добавлено: 15.03.2016
Другие материалы по этой песне:
  • Аккорды и текст

Страница создана 15.03.2016
http://primanota.ru/toby-fox/wrong-enemy-chords.htm
Привет, Гость.
Предлагаем пройти революционный курс по гитаре.
Подарок от PrimaNota.Ru, забирай!