PrimaNota.ru - самый крупный в мире бесплатный архив песенных текстов, аккордов, табулатур и нот


The Devil Wears Prada - Who Speaks Spanish Colon Quesadilla - текст песни, таба, видео

Регистрация Запомнить меня
Войти через:  Facebook Google Twitter Vk Yandex Mail.ru

The Devil Wears Prada - Who Speaks Spanish Colon Quesadilla - текст песни, таба, видео

Печатать
Просмотров: 89
this is the tab for Who Speaks Spanish, Colon Quesadilla by The Devil Wears Prada. 
this is how i play the song, i think it's pretty good. comment and rate, please.

if you have any doubts on how to play a cpecific part watch this video or messeage 
me: http://www.youtube.com/watch?v=zWfK05GP_Dw


"This cold floor we know too well"
E--------------------------------------------------|
B--------------------------------------------------|
G--1414-14-14-14-1414-14-14-14-14-1414-14-14-1414--|
D--1313-13-13-13-1313-13-13-13-13-1313-12-12-1313--|
A--1212-12-12-12-1212-12-12-12-12-1212-12-12-1212--|
D--------------------------------------------------|

                   x3
E-------|----------|
B-------|----------|
G-------|----------|
D-------|-----5-7--|
A--0-0-0|-0~-------|
D--0-0-0|-0~-------|
   . . .  .

"Black blood dotting our warmth"                                     x4
E--------------------------------------------------------------------|
B--------------------------------------------------------------------|
G--------------------------------------------------------------------|
D----------------------------------------8p7p0-10p0-8p7p0-10p0-8p7p0-|
A--3p0--5p0--7p0-0-8p0-7p0-0-10-10-10-10-----------------------------|
G--------------------------------------------------------------------|

"I must seek strength from somwhere..."
E-------8----8------8----8------8----8------8----8--------|
B---------------------------------------------------------|
G--10-----10~--10~----10~--10~----10~--10~----10~--10~----|
D---------------------------------------------------------|
A---------------------------------------------------------|
D---------------------------------------------------------|

"We've been here one thousand times"          x2
E---------------------------------------------|
B---------------------------------------------|
G--5------5---5---5--5--3-------3---3---3--5--|
D--5------5---5---5--5--3-------3---3---3--5--|
A--7-00-0-7-0-7-0-7--3--1--00-0-1-0-1-0-1--3--|
D----00-0---0---0----------00-0---0---0-------|
     .. .   .   .          .. .                

"KNEES..."
E--------------------------------------------|\
B--------------------------------------------| \
G--9h10-9h10-12-10-9h10-9h10-9h10-12-10-9h10-|  \
D--------------------------------------------|   \
A--------------------------------------------|    \
D--------------------------------------------|     \
                                                     x2
E--------------------------------------------|     / 
B------------10------------------13----------|    /
G--9h10-9h10---10-9h10-9h10-9h10----10--9h10-|   /
D--------------------------------------------|  /
A--------------------------------------------| /
D--------------------------------------------|/


E------------------------------------|
B------------------------------------|
G--7/9-9-9-9-9-9/101010101010/121212-|
D--x/x-x-x-x-x-x/x-x-x-x-x-x-/x-x-x--|
A--5/7-7-7-7-7-7/8-8-8-8-8-8-/101010-|
D------------------------------------|


"Hello autumn, I'd die for your..."
E---------------------------------------------------|
B---------------------------------------------------|
G----------7/9-9-9-9-9-9/101010---------------------|
D--0-------x/x-x-x-x-x-x/x-x-x---3-3333-3-33333333--|
A--0--0-0--5/7-7-7-7-7-7/8-8-8---3-3333-3-33333333--|
D--0--0-0------------------------3-3333-3-33333333--|
      . .

"...companionship"
E----------------------------------------------------|
B----------------------------------------------------|
G----------7/9-9-9-9-9-9/101010--15-14-17-15-14-1515-|
D--0-------x/x-x-x-x-x-x/x-x-x---x--x--x--x--x--x-x--|
A--0--0-0--5/7-7-7-7-7-7/8-8-8---13-12-15-13-12/1313-|
D--0--0-0--------------------------------------------|
      . .

"Doubtless I stand, laying my..."
E---------------------------------------------------|
B---------------------------------------------------|
G----------7/9-9-9-9-9-9/101010---------------------|
D--0-------x/x-x-x-x-x-x/x-x-x---3-3333-3-33333333--|
A--0--0-0--5/7-7-7-7-7-7/8-8-8---3-3333-3-33333333--|
D--0--0-0------------------------3-3333-3-33333333--|
      . .

"...heart into the hands of eterni..."
E----------------------------------------------------|
B----------------------------------------------------|
G----------7/9-9-9-9-9-9/101010--15-14-17-15-14-1515-|
D--0-------x/x-x-x-x-x-x/x-x-x---x--x--x--x--x--x-x--|
A--0--0-0--5/7-7-7-7-7-7/8-8-8---13-12-15-13-12/1313-|
D--0--0-0--------------------------------------------|
      . .

"...ty. Revive my doctrines. Revive my doctrines."
E----------------------------|
B----------------------------|
G----------------------------|
D--0~-----0~-----0~-----0~---|
A--0~---0-0~---0-0~---0-0~---|
D--0~---0-0~---0-0~---0-0~---|
        .     .     .
                                                                   x6
E------------------------------------------------------------------|
B-----10----10----12----13----13------10----10----12----13----13---|
G---10----10----10----10----10--10--10----10----10----10----10--10-|
D-12----12----12----12----12------11----11----11----11----11-------|
A------------------------------------------------------------------|
D------------------------------------------------------------------|
 
                                                              x4
E-------------------------------------------------------------|
B-------------------------------------------------------------|
G--10-1010-1010-1010-1010101010--6--6-6--6-6--6-6--6-6-6-6-6--|
D--x--x-x--x-x--x-x--x-x-x-x-x---x--x-x--x-x--x-x--x-x-x-x-x--|
A--8--8-8--8-8--8-8--8-8-8-8-8---4--4-4--4-4--4-4--4-4-4-4-4--|
D-------------------------------------------------------------|


"Selfishness..."                                                  x2
E-----------------------------------------------------------------|
B-----------------------------------------------------------------|
G--10-1010101010101010101010101010-6--6-6-6-6-6-6-6-6-6-6-6-6-6-6-|
D--0--0-0-0-0-0-0-0-0-0-0-0-0-0-0--0--0-0-0-0-0-0-0-0-0-0-0-0-0-0-|
A--0--0-0-0-0-0-0-0-0-0-0-0-0-0-0--0--0-0-0-0-0-0-0-0-0-0-0-0-0-0-|
D--0--0-0-0-0-0-0-0-0-0-0-0-0-0-0--0--0-0-0-0-0-0-0-0-0-0-0-0-0-0-|


               x8
E--------------|
B--------------|
G--------------|
D--------------|
A--00000-00000-|
D--00000-00000-|
   ..... .....

"Lips bleeding with guilt"
E--------------------------------------------------------------|
B--------------------------------------------------------------|
G--------------------------------------------------------------|
D--------------------------------------------------------------|
A--5-3-2-3-2-1-00000--3/--00000--5/-5-3-2-00000--8\--00000--3/-|
D--5-3-2-3-2-1-00000--3/--00000--5/-5-3-2-00000--8\--00000--3/-|
   . . . . . . .....      .....     . . . .....


(i'm sure this part is not played like this, i just can't figure out how it's 
done. this is pretty close.)
"If these words mean nothing, than..."
E---------------------------------------------------------------|
B---------------------------------------------------------------|
G-10-1010----10-1010----1010-----16-1616----17-1717----1717-----|
D-9--9-9-----9--9-9-----9-9------15-1515----16-1616----1616-----|
A-8--8-8-0-0-8--8-8-0-0-8-8--0-0-14-14140-0-15-15150-0-1515-0-0-|
D--------0-0--------0-0------0-0--------0-0--------0-0------0-0-|
         . .        . .      . .
Добавлено: 09.05.2012
Другие материалы по этой песне:
  • Аккорды и текст

Страница создана 09.05.2012
http://primanota.ru/the-devil-wears-prada/who-speaks-spanish-colon-quesadilla-chords.htm
Привет, Гость.
Предлагаем пройти революционный курс по гитаре.
Подарок от PrimaNota.Ru, забирай!