PrimaNota.ru - самый крупный в мире бесплатный архив песенных текстов, аккордов, табулатур и нот


The Devil Wears Prada - Dogs Can Grow Beards All Over - текст песни, таба, бас-таба, видео

Регистрация Запомнить меня
Войти через:  Facebook Google Twitter Vk Yandex Mail.ru

The Devil Wears Prada - Dogs Can Grow Beards All Over - текст песни, таба, бас-таба, видео

Печатать
Просмотров: 113
As recorded by The Devil Wears Prada
              (From the 2005 Album DEAR LOVE: A BEAUTIFUL DISCORD)

Music by The Devil Wears Prada
Arranged by The Devil Wears Prada
Transcribed by Genaro Rascon

Gtr I (D A D G B E) - 'Guitar 1'
Gtr II (D A D G B E) - 'Guitar 2'

 Intro
 4/4
  Gtr I
  S S S  S S S  S S S  S S S  S S S  S   S S S S S S S S S S S S S S S S
|--------------------------------------|---------------------------------|
|--------------------------------------|---------------------------------|
|--------------------------------------|---------------------------------|
|--------------------------------------|---------------------------------|
|-----7h10---7h10---7h10---7h10---7h10-|-----5h8---5h8---5h8---5h8---5h8-|
|-0-0------0------0------0------0------|-0-0-----0-----0-----0-----0-----|
|
| Gtr II
| W                                      W
|--------------------------------------|---------------------------------|
|--------------------------------------|---------------------------------|
|--------------------------------------|---------------------------------|
|--------------------------------------|---------------------------------|
|--------------------------------------|---------------------------------|
|--------------------------------------|---------------------------------|
|
| W                                      W
|--------------------------------------|---------------------------------|
|--------------------------------------|---------------------------------|
|--------------------------------------|---------------------------------|
|--------------------------------------|---------------------------------|
|--------------------------------------|---------------------------------|
|--------------------------------------|---------------------------------|


  G5                                 D5
   S S S S S S S S S S S S S S S S   S S S S S S S S  S  S S S S S S S
|----------------------------------|-------------------------------------|
|----------------------------------|-------------------------------------|
|----------------------------------|-------------------------------------|
|----------------------------------|------------------8--7-5-------------|
|------4h7---4h7---4h7---4h7---4-7-|-----5h8---5h8-----------8-7-5-4p0---|
|--0-0-----0-----0-----0-----0-----|-0-0-----0-----0---------------------|
|
|  W                                 q       Q        H
|----------------------------------|-------------------------------------|
|----------------------------------|-------------------------------------|
|----------------------------------|-------------------------------------|
|--5-------------------------------|-0-----------------------------------|
|--5-------------------------------|-0---------------20\-----------------|
|--5-------------------------------|-0---------------20\-----------------|
|
|  W                                 W
|----------------------------------|-------------------------------------|
|----------------------------------|-------------------------------------|
|-12-------------------------------|-7-----------------------------------|
|--x-------------------------------|-x-----------------------------------|
|-10-------------------------------|-5-----------------------------------|
|----------------------------------|-------------------------------------|


    Bb5                                     A5
     S S S  S S S  S S S  S S S  S S S  S    S S S S S S S S S S S S S S S S
||----------------------------------------|----------------------------------|
||o---------------------------------------|----------------------------------|
||----------------------------------------|----------------------------------|
||----------------------------------------|----------------------------------|
||o------7h10---7h10---7h10---7h10---7h10-|------5h8---5h8---5h8---5h8---5h8-|
||---0-0------0------0------0------0------|--0-0-----0-----0-----0-----0-----|
|
|    W                                       W
||----------------------------------------|----------------------------------|
||o---------------------------------------|----------------------------------|
||----------------------------------------|----------------------------------|
||---8------------------------------------|--7-------------------------------|
||o--8------------------------------------|--7-------------------------------|
||---8------------------------------------|--7-------------------------------|
|
|    W                                       W
||----------------------------------------|----------------------------------|
||o---------------------------------------|----------------------------------|
||--15------------------------------------|-14-------------------------------|
||---x------------------------------------|--x-------------------------------|
||o-13------------------------------------|-12-------------------------------|
||----------------------------------------|----------------------------------|


  G5                                 D5
   S S S S S S S S S S S S S S S S   S S S S S S S S S S S S S S S S     3x
|----------------------------------|-------------------------------------||
|----------------------------------|------------------------------------o||
|----------------------------------|-------------------------------------||
|----------------------------------|-----------------8-7-5---------------||
|------4h7---4h7---4h7---4h7---4-7-|-----5h8---5h8---------8-7-5-4p0----o||
|--0-0-----0-----0-----0-----0-----|-0-0-----0-----0---------------------||
|
|  W                                 W                                   3x
|----------------------------------|-------------------------------------||
|----------------------------------|------------------------------------o||
|----------------------------------|-------------------------------------||
|--5-------------------------------|-0-----------------------------------||
|--5-------------------------------|-0----------------------------------o||
|--5-------------------------------|-0-----------------------------------||
|
|  W                                 W                                   3x
|----------------------------------|-------------------------------------||
|----------------------------------|------------------------------------o||
|-12-------------------------------|-7-----------------------------------||
|--x-------------------------------|-x-----------------------------------||
|-10-------------------------------|-5----------------------------------o||
|----------------------------------|-------------------------------------||


 Pre-Verse
  Q=130
  D5E5F5D5F5E5D5          E5F5D5F5E5
  Gtr I
  PM----------|         PM--------|
  E E E E E E E  E      E E E E E E  Q
|---------------------|--------------------|
|---------------------|--------------------|
|---------------------|--------------------|
|---------------------|--------------------|
|-0-2-3-0-3-2-0-------|-0-2-3-0-3-2--------|
|-0-2-3-0-3-2-0-[3]b5-|-0-2-3-0-3-2-[3]b5--|


    Q=135
    D5E5F5D5F5E5D5        D5E5F5D5F5E5D5
    Gtrs I, II
    PM----------|         PM----------|
    E E E E E E E  E      E E E E E E E  E
||----------------------|---------------------|
||o---------------------|---------------------|
||----------------------|---------------------|
||----------------------|---------------------|
||o-0-2-3-0-3-2-0-------|-0-2-3-0-3-2-0-[3]b5-|
||--0-2-3-0-3-2-0-[3]b5-|-0-2-3-0-3-2-0-------|


  D5E5F5D5F5E5D5        D5E5F5D5F5    E5        D#5   D5
                                               2/4
  PM----------|         PM--------------------------------|
  E E E E E E E  E      E E E E S S E S S E     S S E S S E
|---------------------|----------------------||-------------|
|---------------------|---------------------o||-------------|
|---------------------|----------------------||-------------|
|---------------------|----------------------||-------------|
|-0-2-3-0-3-2-0-------|-0-2-3-0-3-3-3-2-2-2-o||-1-1-1-0-0-0-|
|-0-2-3-0-3-2-0-[3]b5-|-0-2-3-0-3-3-3-2-2-2--||-1-1-1-0-0-0-|


 4/4
  Gtrs I, II
  S S S S S S S S S S S S S S S S   S S S S S S S S S S S S S S S S
|---------------------------------|---------------------------------|
|---------------------------------|---------------------------------|
|---------------------------------|---------------------------------|
|---------------------------------|---------------------------------|
|-----4-4-3-3-------------3-3-2-2-|-----4-4-3-3-------------3-3-2-2-|
|-0-0---------4-4-3-3-2-2---------|-0-0---------4-4-3-3-2-2---------|
|
| Gtr II
| S S S S S S S S S S S S S S S S   S S S S S S S S S S S S S S S S
|---------------------------------|---------------------------------|
|---------------------------------|---------------------------------|
|---------------------------------|---------------------------------|
|-----4-4-3-3-------------3-3-2-2-|-----4-4-3-3-------------3-3-2-2-|
|-------------4-4-3-3-2-2---------|-------------4-4-3-3-2-2---------|
|-0-0-----------------------------|-0-0-----------------------------|


  S S S S S S S S S S S S S S S S   S S S S S S S S S S S S S S S S
|---------------------------------|-----------------------------------|
|---------------------------------|-----------------------------------|
|---------------------------------|-----------------------------------|
|---------------------------------|-----------------------------------|
|-----4-4-3-3-------------3-3-2-2-|-----4-4-3-3-------------3-3-2-2---|
|-0-0---------4-4-3-3-2-2---------|-0-0---------4-4-3-3-2-2-----------|
|
| S S S S S S S S S S S S S S S S   S S S S S S S S S S S S S S S S
|---------------------------------|-----------------------------------|
|---------------------------------|-----------------------------------|
|---------------------------------|-----------------------------------|
|-----4-4-3-3-------------3-3-2-2-|-----4-4-3-3-------------3-3-2-2---|
|-------------4-4-3-3-2-2---------|-------------4-4-3-3-2-2-----------|
|-0-0-----------------------------|-0-0-------------------------------|


  D5
  Gtr I
  PM    PM----|         PM      PM----|
  E E E E E   E E   E   E   E E E E   E E   E
|---------------------|-----------------------|
|---------------------|-----------------------|
|---------------------|-----------------------|
|---------------------|-----------------------|
|---4-3---------3---2-|-----4-3---------3---2-|
|-0-----4-3---2-------|-0-------4-3---2-------|
|
| Gtr II
| Q   E E S S E S S E   S S E E E S S E S S E
|---------------------|-----------------------|
|---------------------|-----------------------|
|---------------------|-----------------------|
|---------------------|-----------------------|
|-0-----0-0-0-0-0-0-0-|-0-0-0---0-0-0-0-0-0-0-|
|-0-----0-0-0-0-0-0-0-|-0-0-0---0-0-0-0-0-0-0-|


  PM      PM----|         PM      PM----|
  E   E E E E   E E   E   E   E E E E   E E   E
|-----------------------|------------------------|
|-----------------------|------------------------|
|-----------------------|------------------------|
|-----------------------|------------------------|
|-----4-3---------3---2-|-----4-3---------3---2--|
|-0-------4-3---2-------|-0-------4-3---2--------|
|
| S S E E E S S E S S E   S S E E E S S E S S E
|-----------------------|------------------------|
|-----------------------|------------------------|
|-----------------------|------------------------|
|-----------------------|------------------------|
|-0-0-0---0-0-0-0-0-0-0-|-0-0-0---0-0-0-0-0-0-0--|
|-0-0-0---0-0-0-0-0-0-0-|-0-0-0---0-0-0-0-0-0-0--|


           C
 2/4      4/4
  Gtrs I, II
           PM------------|
  H        E E E E E E E E   S S S S S S S S S S S S S S S S
|------||------------------|---------------------------------|
|------||o-----------------|---------------------------------|
|------||--7-7-7-7-7-7-7-7-|---------------------------------|
|------||--6-6-6-6-6-6-6-6-|---------------------------------|
|------||o-5-5-5-5-5-5-5-5-|---------------------------------|
|------||------------------|-6p0-5p0-4p0-3p0-6p0-5p0-4p0-3p0-|


  PM------------|
  E E E E E E E E   S S S S S S S S S S S S S S S S
|-----------------|-------------------------------------||
|-----------------|------------------------------------o||
|-7-7-7-7-7-7-7-7-|-------------------------------------||
|-6-6-6-6-6-6-6-6-|-------------------------------------||
|-5-5-5-5-5-5-5-5-|------------------------------------o||
|-----------------|-6p0-5p0-4p0-3p0-6p0-5p0-4p0-3p0-----||


    S S S S S S S S S S S S S S S S   S Q..   S Q..
||----------------------------------|-----------------|
||o---------------------------------|-----------------|
||----------------------------------|-----------------|
||----------------------------------|-----------------|
||o---------------------------------|---3-------5-----|
||--6p0-5p0-4p0-3p0-6p0-5p0-4p0-3p0-|-0-------0-------|
|
|     Gtr II
|   S S S S S S S S S S S S S S S S   S Q..   S Q..
||----------------------------------|-----------------|
||o---------------------------------|-----------------|
||----------------------------------|-----------------|
||----------------------------------|-----------------|
||o---------------------------------|-----------------|
||--6p0-5p0-4p0-3p0-6p0-5p0-4p0-3p0-|-0-3-----0-5-----|


  S S S S S S S S S S S S S S S S   S  Q..   S  Q..       W
|---------------------------------|--------------------||---------|
|---------------------------------|-------------------o||---------|
|---------------------------------|--------------------||---------|
|---------------------------------|--------------------||---------|
|---------------------------------|---[3]------[5]----o||-5b6r====|
|-6p0-5p0-4p0-3p0-6p0-5p0-4p0-3p0-|-0--------0---------||---------|
|
| S S S S S S S S S S S S S S S S   S  Q..   S  Q..
|---------------------------------|--------------------||---------|
|---------------------------------|-------------------o||---------|
|---------------------------------|--------------------||---------|
|---------------------------------|--------------------||---------|
|---------------------------------|-------------------o||---------|
|-6p0-5p0-4p0-3p0-6p0-5p0-4p0-3p0-|-0--3-----0--5------||---------|


   Interlude
    D5   F5 D5G5 D5F5 D5
                               |-3-| |-3-|
    E. S E. S E. S E. S   E. S E E E E E E  Q
||----------------------|-------------------------|
||o---------------------|-------------------------|
||----------------------|-------------------------|
||----------------------|-------------------------|
||o-0--0-3--0-5--0-3--0-|-------------------------|
||--0--0-3--0-5--0-3--0-|----0-0-0-0-0-0-0-[3]b5--|


                       1.                         2H.=H
  D5   F5 D5G5 D5G#5G5                             D5
                                                    \2
                             |-3-| |-3-| |-3-|
  E. S E. S E. S E. S   E. S E E E E E E E E E      W
|---------------------|-------------------------||--------|
|---------------------|------------------------o||--------|
|---------------------|-------------------------||--------|
|---------------------|-------------------------||--------|
|-0--0-3--0-5--0-6--5-|------------------------o||-12-----|
|-0--0-3--0-5--0-6--5-|----0-0-0-0-0-0-0-0-0-0--||-12-----|


    D5   F5 D5G5 D5F5 D5
   2/2
                               |-3-| |-3-|
    E. S E. S E. S E. S   E. S E E E E E E  Q
||----------------------|-------------------------|
||o---------------------|-------------------------|
||----------------------|-------------------------|
||----------------------|-------------------------|
||o-0--0-3--0-5--0-3--0-|-------------------------|
||--0--0-3--0-5--0-3--0-|----0-0-0-0-0-0-0-[3]b5--|


  D5   F5 D5G5 D5G#5G5
                             |-3-| |-3-| |-3-|
  E. S E. S E. S E. S   E. S E E E E E E E E E
|---------------------|--------------------------||
|---------------------|-------------------------o||
|---------------------|--------------------------||
|---------------------|--------------------------||
|-0--0-3--0-5--0-6--5-|-------------------------o||
|-0--0-3--0-5--0-6--5-|----0-0-0-0-0-0-0-0-0-0---||


  D5
  W          +W           +W           +W
|----------|------------|------------|--------|
|----------|------------|------------|--------|
|----------|------------|------------|--------|
|-0--------|-(0)--------|-(0)--------|-(0)----|
|-0--------|-(0)--------|-(0)--------|-(0)----|
|-0--------|-(0)--------|-(0)--------|-(0)----|


   Bridge
    F
   4/4
    Gtrs I, II
     E E E E E E E E     E  E E E E E E E
||-------------------|--------------------|
||o------------------|--------------------|
||-------------------|--------------------|
||---8-8-8-8-8-8-8-8-|---8--8-8-8-8-8-8-8-|
||o--8-8-8-8-8-8-8-8-|---8--8-8-8-8-8-8-8-|
||---8-8-8-8-8-8-8-8-|---8--8-8-8-8-8-8-8-|
|
|    W                  +W
||-------------------|--------------------|
||o------------------|--------------------|
||--15---------------|-(15)---------------|
||-------------------|--------------------|
||o-13---------------|-(13)---------------|
||-------------------|--------------------|


  G
   E  E  E  E  E  E  E  E     E   E  E  E  E  E  E  E
|-------------------------|----------------------------|
|-------------------------|----------------------------|
|-------------------------|----------------------------|
|-10-10-10-10-10-10-10-10-|--10--10-10-10-10-10-10-10--|
|-10-10-10-10-10-10-10-10-|--10--10-10-10-10-10-10-10--|
|-10-10-10-10-10-10-10-10-|--10--10-10-10-10-10-10-10--|
|
|  W                         +W
|-------------------------|----------------------------|
|-------------------------|----------------------------|
|-12----------------------|-(12)-----------------------|
|-------------------------|----------------------------|
|-10----------------------|-(10)-----------------------|
|-------------------------|----------------------------|


  1.
  D5    D F        D5    D   F           G
  Gtrs I, II
  S S E E  E  E  E E E    E   E  E  E  E  E  Q
|----------------------|------------------------|
|----------------------|------------------------|
|-------7-10-10-10-----|--7--10-10-10-10-12-12--|
|-0-0-0----------------|------------------------|
|-0-0-0-5--8--8--8-0-0-|--5---8--8--8--8-10-10--|
|-0-0-0------------0-0-|------------------------|
|
| W                      +W
|----------------------|------------------------|
|----------------------|------------------------|
|-7--------------------|-(7)--------------------|
|----------------------|------------------------|
|-5--------------------|-(5)--------------------|
|----------------------|------------------------|


  D5      D F        D5    D   F           E
   S  S E E  E  E  E E E    E   E  E  E  E E Q
|------------------------|-------------------------||
|------------------------|------------------------o||
|---------7-10-10-10-----|--7--10-10-10-10-9-9-----||
|--0--0-0----------------|-------------------------||
|--0--0-0-5--8--8--8-0-0-|--5---8--8--8--8-7-7----o||
|--0--0-0------------0-0-|-------------------------||
|
| +W                       +W
|------------------------|-------------------------||
|------------------------|------------------------o||
|-(7)--------------------|-(7)---------------------||
|------------------------|-------------------------||
|-(5)--------------------|-(5)--------------------o||
|------------------------|-------------------------||


  2.
  D5                                        F
  PM--------------------------------------|
  S S S S S S S S E E E E   E S S S S S S E  E  Q
|-------------------------|------------------------|
|-------------------------|------------------------|
|-------------------------|-----------------10-10--|
|-------------------------|------------------------|
|-0-0-0-0-0-0-0-0-0-0-0-0-|---0-0-0-0-0-0-0--8--8--|
|-0-0-0-0-0-0-0-0-0-0-0-0-|---0-0-0-0-0-0-0--------|


  D5                                        G
  PM--------------------------------------|
  S S S S S S S S E E E E   E S S S S S S E  E  Q
|-------------------------|-------------------------:
|-------------------------|-------------------------:
|-------------------------|-----------------12-12---:
|-------------------------|-------------------------:
|-0-0-0-0-0-0-0-0-0-0-0-0-|---0-0-0-0-0-0-0-10-10---:
|-0-0-0-0-0-0-0-0-0-0-0-0-|---0-0-0-0-0-0-0---------:


  Bb5
  Gtrs I, II
   E E E E E E E E     E  E E E E E E E
|------------------|--------------------|
|------------------|--------------------|
|------------------|--------------------|
|--8-8-8-8-8-8-8-8-|---8--8-8-8-8-8-8-8-|
|--8-8-8-8-8-8-8-8-|---8--8-8-8-8-8-8-8-|
|--8-8-8-8-8-8-8-8-|---8--8-8-8-8-8-8-8-|
|
|  W                  +W
|------------------|--------------------|
|------------------|--------------------|
|-15---------------|-(15)---------------|
|------------------|--------------------|
|-13---------------|-(13)---------------|
|------------------|--------------------|


  C5
   E  E  E  E  E  E  E  E     E   E  E  E  E  E  E  E
|-------------------------|---------------------------|
|-------------------------|---------------------------|
|-------------------------|---------------------------|
|-10-10-10-10-10-10-10-10-|--10--10-10-10-10-10-10-10-|
|-10-10-10-10-10-10-10-10-|--10--10-10-10-10-10-10-10-|
|-10-10-10-10-10-10-10-10-|--10--10-10-10-10-10-10-10-|
|
|  W                         +W
|-------------------------|---------------------------|
|-------------------------|---------------------------|
|-12----------------------|-(12)----------------------|
|-------------------------|---------------------------|
|-10----------------------|-(10)----------------------|
|-------------------------|---------------------------|


  D5
  PM--------------------------------------|
  S S S S S S S S E E E E   E S S S S S S E E E E
|-------------------------|-----------------------|
|-------------------------|-----------------------|
|-------------------------|-----------------------|
|-------------------------|-----------------------|
|-0-0-0-0-0-0-0-0-0-0-0-0-|---0-0-0-0-0-0-0-0-0---|
|-0-0-0-0-0-0-0-0-0-0-0-0-|---0-0-0-0-0-0-0-0-0---|


  PM--------------------------------------|
  S S S S S S S S E E E E   E S S S S S S E E E E
|-------------------------|------------------------|
|-------------------------|------------------------|
|-------------------------|------------------------|
|-------------------------|------------------------|
|-0-0-0-0-0-0-0-0-0-0-0-0-|---0-0-0-0-0-0-0-0-0----|
|-0-0-0-0-0-0-0-0-0-0-0-0-|---0-0-0-0-0-0-0-0-0----|


 Breakdown
  D5
  Gtr I
  W                         +W
|-------------------------|-------------------------|
|-------------------------|-------------------------|
|-------------------------|-------------------------|
|-0-----------------------|-(0)---------------------|
|-0-----------------------|-(0)---------------------|
|-0-----------------------|-(0)---------------------|
|
| Gtr II
| PM----------------------------------------|
| S S S S S S S S E E E E    E  S S S S S S E E E E
|-------------------------|-------------------------|
|-------------------------|-------------------------|
|-------------------------|-------------------------|
|-------------------------|-------------------------|
|-0-0-0-0-0-0-0-0-0-0-0-0-|-----0-0-0-0-0-0-0-0-0---|
|-0-0-0-0-0-0-0-0-0-0-0-0-|-----0-0-0-0-0-0-0-0-0---|


  PM----------------------------|
  S S S S S S S S E E E E   E E E E H
|-------------------------|--------------|
|-------------------------|--------------|
|-------------------------|--------------|
|-------------------------|--------------|
|-0-0-0-0-0-0-0-0-0-0-0-0-|---0-0--------|
|-0-0-0-0-0-0-0-0-0-0-0-0-|---0-0--------|
|
| PM----------------------------|
| S S S S S S S S E E E E   E E E E H
|-------------------------|--------------|
|-------------------------|--------------|
|-------------------------|--------------|
|-------------------------|--------------|
|-0-0-0-0-0-0-0-0-0-0-0-0-|---0-0--------|
|-0-0-0-0-0-0-0-0-0-0-0-0-|---0-0--------|


    D5
    Gtrs I, II
    PM--------------------|
    S S S S S S S S E E E E    W
||--------------------------|--------------|
||o-------------------------|--------------|
||--------------------------|--------------|
||--------------------------|--------------|
||o-0-0-0-0-0-0-0-0-0-0-0-0-|--------------|
||--0-0-0-0-0-0-0-0-0-0-0-0-|--------------|
|
|   W                          E E H.
||--------------------------|-10-----------|
||o-------------------------|--------------|
||--------------------------|--------------|
||--------------------------|--------------|
||o-------------------------|--------------|
||--------------------------|--------------|


                           1.           2.
  PM--------------------|
  S S S S S S S S E E E E   W             W
|-------------------------|-----------||-------|
|-------------------------|----------o||-------|
|-------------------------|-----------||-------|
|-------------------------|-----------||-------|
|-0-0-0-0-0-0-0-0-0-0-0-0-|----------o||-------|
|-0-0-0-0-0-0-0-0-0-0-0-0-|-----------||-------|
|
|                           <             <
| W                         W             W
|-------------------------|-----------||-10----|
|-------------------------|----------o||-------|
|-------------------------|-----------||-------|
|-------------------------|-----------||-------|
|-------------------------|----------o||-------|
|-------------------------|-----------||-------|


    Amaj7sus4/D
    Gtrs I, II
     E  E  E  E  H          W                      E  E  E  E  H
||------------------------|---------------------|-----------------------|
||o-----------------------|---------------------|-----------------------|
||---7--7--7--7-----------|---------------------|--7--7--7--7-----------|
||---6--6--6--6-----------|---------------------|--6--6--6--6-----------|
||o--5--5--5--5-----------|---------------------|--5--5--5--5-----------|
||---0--0--0--0-----------|---------------------|--0--0--0--0-----------|
|
|    E  E  E  E  E E E  E   E  E  E E  E E E  E    E  E  E  E  E E E  E
||------------------------|---------------------|-----------------------|
||o----11-10--8-10---8-10-|---11-10-8-10---8-10-|----11-10--8-10---8-10-|
||---7-------------7------|-7------------7------|--7-------------7------|
||------------------------|---------------------|-----------------------|
||o-----------------------|---------------------|-----------------------|
||------------------------|---------------------|-----------------------|


                          H.=H                           
                           
  W                        E    E       E      E    +H
|----------------------||------------------------------------*|
|---------------------o||------------------------------------*|
|----------------------||--7/--------------------------------*|
|----------------------||--6/--------------------------------*|
|---------------------o||--5/--------------------------------*|
|----------------------||--0/--------------------------------*|
|
|                          
| E  E  E E  E E E  E      W
|----------------------||------------------------------------*|
|---11-10-8-10---8-10-o||------------------------------------*|
|-7------------7-------||--7/--------------------------------*|
|----------------------||------------------------------------*|
|---------------------o||------------------------------------*|
|----------------------||------------------------------------*|


Duration Legend
---------------
W - whole; H - half; Q - quarter; E - 8th; S - 16th; T - 32nd; X - 64th; a - acciaccatura
+ - note tied to previous; . - note dotted; .. - note double dotted
Uncapitalized letters represent notes that are staccato (1/2 duration)
Irregular groupings are notated above the duration line
Duration letters will always appear directly above the note/fret number it represents the
duration for.  Duration letters with no fret number below them represent rests.  Multi-
bar rests are notated in the form Wxn, where n is the number of bars to rest for.  Low
melody durations appear below the staff

Tablature Legend
----------------
 h   - hammer-on
 p   - pull-off
 b   - bend
 pb  - pre-bend
 r   - bend release (if no number after the r, then release immediately)
 /\  - slide into or out of (from/to "nowhere")
 s   - legato slide
 S   - shift slide
  - natural harmonic
[n]  - artificial harmonic
n(n) - tapped harmonic
 ~   - vibrato
 tr  - trill
 T   - tap
 TP  - trem. picking
 PM  - palm muting
\n/  - tremolo bar dip; n = amount to dip
 \n  - tremolo bar down
 n/  - tremolo bar up
/n\  - tremolo bar inverted dip
 =   - hold bend; also acts as connecting device for hammers/pulls
 <>  - volume swell (louder/softer)
 x   - on rhythm slash represents muted slash
 o   - on rhythm slash represents single note slash

Misc Legend
-----------
 |  - bar
||  - double bar
||o - repeat start
o|| - repeat end
*|  - double bar (ending)
 :  - bar (freetime)
 $  - Segno
 &  - Coda
Tempo markers -  = BPM(8/16=s8/s16), where s8 = swing 8ths, s16 = swing 16ths


Добавлено: 13.08.2013
Другие материалы по этой песне:
  • Аккорды и текст

Страница создана 12.06.2012
http://primanota.ru/the-devil-wears-prada/dogs-can-grow-beards-all-over-chords.htm
Привет, Гость.
Предлагаем пройти революционный курс по гитаре.
Подарок от PrimaNota.Ru, забирай!