PrimaNota.ru - самый крупный в мире бесплатный архив песенных текстов, аккордов, табулатур и нот


The Devil Wears Prada - Mamouth - таба, видео

Регистрация Запомнить меня
Войти через:  Facebook Google Twitter Vk Yandex Mail.ru

The Devil Wears Prada - Mamouth - таба, видео

Печатать
Просмотров: 71
Tuning: Drop A (A E A D Gb B)

Intro (0:00 - 0:32) 

(0:00 - 0:08)

Lead Guitar
|---------------------------------|---------------------------------|
|---------------------------------|---------------------------------|
|---------------------------------|---------------------------------|
|---------------------------------|---------------------------------|
|---------------------------------|---------------------------------|
|-0-0-0-0-0-0-----0-0-0-0-0-0-----|-0-0-0-0-0-0-----0-0-0-0-0-1-1-1-|  

|---------------------------------|---------------------------------|
|---------------------------------|---------------------------------|
|---------------------------------|---------------------------------|
|---------------------------------|---------------------------------|
|---------------------------------|-----------------1---------------|
|-0-0-0-0-0-0-----0-0-0-0-0-0-----|-0-0-0-0-0-0-0-0-1---------------| 

(0:08 - 0:16)

Both Guitars
|---------------------------------|---------------------------------|
|---------------------------------|---------------------------------|
|---------------------------------|---------------------------------|
|---------------------------------|---------------------------------|
|-0-0-0-0-0-0-----0-0-0-0-0-0-----|-0-0-0-0-0-0-----0-0-0-0-0-1-1-1-|
|-0-0-0-0-0-0-----0-0-0-0-0-0-----|-0-0-0-0-0-0-----0-0-0-0-0-1-1-1-|  
palm mute----------------------------------------------------|

|---------------------------------|---------------------------------|
|---------------------------------|---------------------------------|
|---------------------------------|---------------------------------|
|---------------------------------|---------------------------------|
|-0-0-0-0-0-0-----0-0-0-0-0-0-----|-0-0-0-0-0-0-0-0-1---------------|
|-0-0-0-0-0-0-----0-0-0-0-0-0-----|-0-0-0-0-0-0-0-0-1---------------| 
palm mute------------------------------------------|

(0:16 - 0:25)

Both Guitars 
|---------------------------------|---------------------------------|
|---------------------------------|---------------------------------|
|---------------------------------|---------------------------------|
|---------------------------------|---------------------------------|
|-------------15--------------10--|-------------12----------1-------|
|-0-0-0-0-0-0-----0-0-0-0-0-0-----|-0-0-0-0-0-0-----0-0-0-0-1-------|
palm mute ----|  |-----------|     |-----------|  |---------|

|---------------------------------|---------------------------------|
|---------------------------------|---------------------------------|
|---------------------------------|---------------------------------|
|---------------------------------|---------------------------------|
|-------------15--------------10--|---------------------------------|
|-0-0-0-0-0-0-----0-0-0-0-0-0-----|-0-0-0-0-0-0-0-0-0-0-0-0-0-0-0-0-|
palm mute ----|  |-----------|     |-------------------------------|

(0:25 - 0:32)

Lead Guitar
|-------------------------------------------|
|-------------------------------------------|
|-10-10-10-10-10-10-12-12-8-8-8-8-8-8-10-10-|
|-------------------------------------------|
|-8--8--8--8--8--8--10-10-6-6-6-6-6-6--8--8-|
|-------------------------------------------|

|---------------------------------|
|---------------------------------|
|-7-7-7-7-7-7-7-7-7-7-7-7-7-7-7-7-|
|---------------------------------|
|-5-5-5-5-5-5-5-5-5-5-5-5-5-5-5-5-|
|---------------------------------|

|-------------------------------------------------|
|-------------------------------------------------|
|-10-10-10-10-10-10-12-12-15-15-15-15-17-17-17-17-|
|-------------------------------------------------|
|-8--8--8--8--8--8--10-10-13-13-13-13-15-15-15-15-|
|-------------------------------------------------|


Verse 1 (0:32 - 0:52)

(0:32 - 0:42)

Both Guitars
|--------------------------------|--------------------------------|
|--------------------------------|--------------------------------|
|--------------------------------|--------------------------------|
|--------------------------------|--------------------------------|
|-8-----10---7---8-------3-3-3-3-|-8-----10---7---8-------5---5/8-|
|---0-0----0---0---0---0---------|---0-0----0---0---0-0-0---------|
palm mute open A notes 6th string

|-----------------------------------------|
|-----------------------------------------|
|-10-10-10-10-10-10-10-10-9-9-9-9-9-9-9-9-|
|-----------------------------------------|
|-8--8--8--8--8--8--8--8--7-7-7-7-7-7-7-7-|
|-----------------------------------------|

|-------------------------------------------------|
|-------------------------------------------------|
|-12-12-12-12-12-12-12-12-12-12-12-12-12-12-12-12-|
|-------------------------------------------------|
|-10-10-10-10-10-10-10-10-10-10-10-10-10-10-10-10-|
|-------------------------------------------------|

(0:42 - 0:47)

Lead Guitar
|-----------------------------------|------------------------------------|
|-----------------------------------|------------------------------------|
|-----------------------------------|------------------------------------|
|-12-----15---10---12-------7-7-7-7-|-12-----15---10---12-------8---8/12-|
|-----------------------------------|------------------------------------|
|----0-0----0----0----0---0---------|----0-0----0----0----0-0-0----------|
palm mute open A notes 6th string


(0:47 - 0:52)

Both Guitars
|-----------------------------------------|
|-----------------------------------------|
|-10-10-10-10-10-10-10-10-9-9-9-9-9-9-9-9-|
|-----------------------------------------|
|-8--8--8--8--8--8--8--8--7-7-7-7-7-7-7-7-|
|-----------------------------------------|

|-------------------------------------------------|
|-------------------------------------------------|
|-12-12-12-12-12-12-12-12-12-12-12-12-12-12-12-12-|
|-------------------------------------------------|
|-10-10-10-10-10-10-10-10-10-10-10-10-10-10-10-10-|
|-------------------------------------------------|

Chorus 1 (0:52- 1:11)

Lead Guitar
|----------------------------|-------------------10/---/13----12-------|
|----------------------------|--------------10----------------------13-|
|----------------------------|-----------10----------------------------|
|/15----14----10--12---------|-12----12--------------------------------|
|----------------------------|-----------------------------------------|
|----------------------------|-----------------------------------------|

|-10------------------13-----|--------------------------|
|----------------------------|-13-------------11-----10-|
|----------------------------|--------------------------|
|----------------------------|--------------------------|
|----------------------------|--------------------------|
|----------------------------|--------------------------|
Repeat 2x

Verse 2 (1:11 - 1:30)    
Repeat Verse 1

Chorus 2 (1:30 - 1:49)
Repeat Chorus 1

The breakdown in between the 2 chorus's I guess you could call this part? (1:49 - 1:59)

Lead Guitar
|-20-20-20-20-20-20-17-17-17-17-17-17-17-17-17-17-|
|-------------------------------------------------|
|-------------------------------------------------|
|-------------------------------------------------|
|-------------------------------------------------|
|-------------------------------------------------|

|-15-15-15-15-15-15-17-17-17-17-17-17-17-17-17-17-|
|-------------------------------------------------|
|-------------------------------------------------|
|-------------------------------------------------|
|-------------------------------------------------|
|-------------------------------------------------|

|-12-12-12-12-12-12-13-13-13-13-13-13-13-13-13-13-|
|-------------------------------------------------|
|-------------------------------------------------|
|-------------------------------------------------|
|-------------------------------------------------|
|-------------------------------------------------|

|-10-10-10-10-10-10-10-10-8-8-8-8-8-8-8-8-|
|-----------------------------------------|
|-----------------------------------------|
|-----------------------------------------|
|-----------------------------------------|
|-----------------------------------------|

Chorus 3 (1:59 - 2:08)
Repeat Chorus 1 or 2 (same thing) but only 1 time

Outro/Ending Breakdown (2:08 - 2:43)

(2:08 - 2:18)

Both Guitars
|---------------------------------|---------------------------------|
|---------------------------------|---------------------------------|
|---------------------------------|---------------------------------|
|---------------------------------|---------------------------------|
|-0-0-0-0-0-0-----0-0-0-0-0-0-----|-0-0-0-0-0-0-----0-0-0-0-0-1-1-1-|
|-0-0-0-0-0-0-----0-0-0-0-0-0-----|-0-0-0-0-0-0-----0-0-0-0-0-1-1-1-|
palm mute----------------------------------------------------|

|---------------------------------|---------------------------------|
|---------------------------------|---------------------------------|
|---------------------------------|---------------------------------|
|---------------------------------|---------------------------------|
|-0-0-0-0-0-0-----0-0-0-0-0-0-----|-0-0-0-0-0-0-0-0-1---------------| 
|-0-0-0-0-0-0-----0-0-0-0-0-0-----|-0-0-0-0-0-0-0-0-1---------------| 
palm mute------------------------------------------|

(2:18 - 2:27)

Both Guitars
|-----------------------------------|-----------------------------------|
|-----------------------------------|-----------------------------------|
|-8---------------------------------|-----------------4-------------4---|
|-----------------------------------|-----------------------------------|
|-5---------------------------------|-----------------1-------------1---|
|-------0-0-0-0-----0-0-0-0-----0-0-|-0-0-----0-0-0-0-------0-0-0-0-----|
palm mute open A notes on 6th string

|-----------------------------------|-----------------------------------|
|-----------------------------------|-----------------------------------|
|-8---------------------------------|--------------------------------4--|
|-----------------------------------|-1------1----------1------1--------|
|-5---------------------------------|-2------2----------2------2-----1--|
|-------0-0-0-0-----0-0-0-0-----0-0-|-1------1------0-0-1------1--------|
palm mute open A notes on 6th string

|-----------------------------------|-----------------------------------|
|-----------------------------------|-----------------------------------|
|-8---------------------------------|-----------------4-------------4---|
|-----------------------------------|-----------------------------------|
|-5---------------------------------|-----------------1-------------1---|
|-------0-0-0-0-----0-0-0-0-----0-0-|-0-0-----0-0-0-0-------0-0-0-0-----|
palm mute open A notes on 6th string

|-----------------------------------|-----------------------------------|
|-----------------------------------|-----------------------------------|
|-8---------------------------------|-----------------------------------|
|-----------------------------------|-1------1----------1------1--------|
|-5---------------------------------|-2------2----------2------2--------|
|-------0-0-0-0-----0-0-0-0-----0-0-|-1------1------0-0-1------1----0-0-|
palm mute open A notes on 6th string

|-----------------------------------|
|-----------------------------------|
|-----------------------------------|
|-1------1----------1------1--------|
|-2------2----------2------2--------|
|-1------1------0-0-1------1----0-0-|
palm mute open A notes on 6th string
Добавлено: 26.06.2013
Другие материалы по этой песне:
  • Аккорды и текст

Страница создана 26.06.2013
http://primanota.ru/the-devil-wears-prada/mamouth-chords.htm
Привет, Гость.
Предлагаем пройти революционный курс по гитаре.
Подарок от PrimaNota.Ru, забирай!