PrimaNota.ru - самый крупный в мире бесплатный архив песенных текстов, аккордов, табулатур и нот


The Devil Wears Prada - Survivor - текст песни, таба, видео

Регистрация Запомнить меня
Войти через:  Facebook Google Twitter Vk Yandex Mail.ru

The Devil Wears Prada - Survivor - текст песни, таба, видео

Печатать
Просмотров: 137
Уроки эстрадного вокала в Санкт-Петербурге
This is the first song i've tabbed. I noticed that nobody put it on here so I 
tabbed it out. Very easy. Enjoy :]
Tabbed by pgguitarist38 - pgskater38@ymail.com
Drop B tuning

Intro - 00:00-00:31

|---------------------------------|
|---------------------------------|
|--------8----------------777777--|
|--8-7-0-x-0~---------0~--xxxxxx--| x2
|--8-7-0-6-0~-----032-0~--555555--|
|--8-7-0---0~-----032-0~----------|
                  ...

|------------------------------------------------------------------|
|------------------------------------------------------------------|
|----------777777----------777777--------------------------777777--|
|------0~--xxxxxx------0~--xxxxxx---8-7-0---0~---------0~--xxxxxx--|
|--032-0~--555555--032-0~--555555---8-7-0-6-0~-----032-0~--555555--|
|--032-0~----------032-0~-----------8-7-0---0~-----032-0~----------|
   ...             ...                             ...
|------------|
|------------|
|------------|
|------------|
|--0-0-0000--|
|--0-0-0000--|
     . ....

Verse 1 - 00:31-00:47

|--------------------------------------------|
|--------------------------------------------|
|--------------------------------------------|
|--------------------------------------------| x2
|---6-6-5-5-1-1-0-0--6-6-5-5-1-1-------------|
|--0-0-0-0-0-0-0-0--0-0-0-0-0-0-0--11114444--|
   . . . . . . . .  . . . . . . .

Then bass from 00:47-01:46

Chorus - 01:46-2:35

|-------------------------------|
|-------------------------------|
|-------------------------------|
|--0-----5----3-----8----10-----| x4
|--0-x16-5-x6-3-x10-8-x6-10-x8--|
|--0-----5----3-----8----10-----|

2:35-2:46

|-----------|
|-----------|
|-----------|
|--0~-1-0~--|
|--0~-1-0~--|
|--0~-1-0~--|

|----------------------------------------|
|----------------------------------------|
|--------8----------------777777---------|
|--8-7-0-x-0~---------0~--xxxxxx---------|
|--8-7-0-6-0~-----032-0~--555555----032--|
|--8-7-0---0~-----032-0~------------032--|
                  ...               ...

Breakdown 1 - 2:48-3:20

|--------------------------|--|---------------|
|--------------------------|--|---------------|
|--------------------------|--|---------------|    second time replace slide
|--------------------------|--|---------------| x4 with 3* harmonic on 5th
|--000000--000000--00000---|00|x5--00000-10/--|    string
|--000000--000000--00000---|00|----00000-10/--|
   ......  ......  .....    ..     .....

|------------------|
|------------------|
|------------------|
|------------------|
|--000000--000000--|
|--000000--000000--|
   ......  ......

Breakdown 2 - 3:20-END

|-----------------|
|-----------------|
|-----------------|    first and third time 2 off last set
|-----------------| x8
|--0000--00-0000--|
|--0000--00-0000--|
   ....  .. ....
Добавлено: 05.03.2012
Другие материалы по этой песне:

Страница создана 05.03.2012
http://primanota.ru/the-devil-wears-prada/survivor-chords.htm
Привет, Гость.
Предлагаем пройти революционный курс по гитаре.
Подарок от PrimaNota.Ru, забирай!