PrimaNota.ru - самый крупный в мире бесплатный архив песенных текстов, аккордов, табулатур и нот


The Devil Wears Prada - Vengeance - текст песни, таба, видео

Регистрация Запомнить меня
Войти через:  Facebook Google Twitter Vk Yandex Mail.ru

The Devil Wears Prada - Vengeance - текст песни, таба, видео

Печатать
Просмотров: 105
-------------------------------------------------------------------------------
			     Vengeance - The Devil Wears Prada
-------------------------------------------------------------------------------
Tabbed by: RSXKILLA
Email:gpknights19@hotmail.com

there is no tab for this song so i gave it a listen.
iv basically tabbed out the rhythm guitar

posted a cover video showing how i play my tab

http://www.youtube.com/watch?v=0QJQ0WCv424

11-17-11 (finally back in drop c again.... picked up the lead riff in the chorus)

Tuning:DROP C (C, G, C, F, A, D)

 (0:00-0:16) this strumming pattern is weird
	     the guitars switch turns on playing (this repeats till next riff)
D|---------------------------------------------------------------------------|
A|---------------------------------------------------------------------------|
F|---14-14--------14-14--------14-14-14-14-----------------------------------|
C|---13-13--------13-13--------13-13-13-13-----------------------------------|
G|---12-12--------12-12--------12-12-12-12-----------------------------------|
C|---------------------------------------------------------------------------|
 
  (0:16-0:28)
D|---------------------------------------------------------------------------|
A|--------------------------------------10t----------------------------------|
F|--7t--------10t---------7t-------------------------------------------------|
C|---------------------------------------------------------------------------|
G|---------------------------------------------------------------------------|
C|---------------------------------------------------------------------------|

  (0:28-0:40) played 2 times (last section has an alternate ending)
D|---------------------------------------------------------------------------|
A|---------------------------------------------------------------------------|
F|---------------------------------------------------------------------------|
C|--8------7\----8-----7\----------------------------------------------------|
G|--8------7\----8-----7\----------------------------------------------------|
C|--8--00--7\----8-00--7\--0-0-0-0-0-0-0-0-----------------------------------|


D|-----------------------------------------|----------------------------------|
A|-----------------------------------------|----------------------------------|
F|-----------------------------------------|----------------------------------|
C|--8-----7\----8------7\------------------|-0-0-0-0-3-3-3-3------------------|
G|--8-----7\----8------7\--1-1-0-1-1-0-1---|-0-0-0-0-3-3-3-3------------------|
C|--8-00--7\----8--00--7\--1-1-0-1-1-0-1---|-0-0-0-0-3-3-3-3------------------|

  (0:40-0:51)                                            *rhythm
D|---------------------------------------------------------------------------|
A|---------------------------------------------------------------------------|
F|---------------------------------------------------------------------------|
C|---------------------------------------------------------------------------|
G|--8-8-8-8-8-8-8-7-7-7-7-7-7-7----------------------------------------------|
C|--8-8-8-8-8-8-8-7-7-7-7-7-7-7--0000-0000-0000-0000-0000000-----------------|

							*lead
D|-8-8-8---------------------------------------------------------------------|
A|-------6-6-6-5-5-5---------------------------------------------------------|
F|-------------------5-5-5-7-7-7b--------------------------------------------|
C|---------------------------------------------------------------------------|
G|---------------------------------------------------------------------------|
C|---------------------------------0000-0000-0000-0000-0000000---------------|


							*rhythm
D|---------------------------------------------------------------------------|
A|---------------------------------------------------------------------------|
F|---------------------------------------------------------------------------|
C|---------------------------------------------------------------------------|
G|-8-8-8-8-8-8-8-10-10-10-10-10-10-10----------------------------------------|
C|-8-8-8-8-8-8-8-10-10-10-10-10-10-10--0000-0000-0000-0000-00000000----------|


the last held note rings out to the end of the section	*lead
D|-8-8-8---------------------------------------------------------------------|
A|-------6-6-6-5-5-5----------------5-6~~~~~~~~------------------------------|
F|-------------------5-5-5-7-7-7b--------------------------------------------|
C|---------------------------------------------------------------------------|
G|---------------------------------------------------------------------------|
C|---------------------------------------------------------------------------|

  (0:51-0:54)
D|------------------|
A|------------------|
F|------------------|
C|--8~~-----11~~----|
G|--5~~-----8~~-----|
C|--5~~-----8~~-----|

  (0:54-1:13) theres an extra note after playing each slide as demonstrated
              in the tab) played 2 times
D|---------------------------------------------------------------------------|
A|---------------------------------------------------------------------------|
F|---------------------------------19\17-----17\15---------------------------|
C|---------------------------------x--x------x--x----------------------------|
G|---------------------------------17\15-----15\13---------------------------|
C|-0000-0000-0000-0000-0000-0000----------0----------------------------------|

D|---------------------------------------------------------------------------|
A|---------------------------------------------------------------------------|
F|----------------------------------15\14-----12\11 -------------------------|
C|----------------------------------x--x------x--x---------------------------|
G|----------------------------------13\12-----10\9---------------------------|
C|-0-0000-0000-0000-0000-0000-0000----------0--------0-----------------------|

  (1:13-1:17) theres a phaser effect that comes in
            at the end of this section cant 
	      tell which note.
D|------------------------------------|
A|------------------------------------|
F|------------------------------------|
C|--8~~~~-------11-11-11-11-----------|
G|--5~~~--------8--8--8--8------------|
C|--5~~~--------8--8--8--8------------|

  (1:17-1:42) repeats twice
D|---------------------------------------------------------------------------|
A|---------------------------------------------------------------------------|
F|---------------------------------------------------------------------------|
C|--0----0----0--0-0-1-0------8----8----8--8-7-8-7---------------------------|
G|--0----0----0--0-0-1-0------8----8----8--8-7-8-7--7-7-7-7-11-11-11-11------|
C|--0----0----0--0-0-1-0------8----8----8--8-7-8-7--7-7-7-7-11-11-11-11------|

  (1:42-1:44)
D|------------------------|
A|------------------------|
F|------------------------|
C|----8~~~---8---7-8-7----|
G|----5~~~---8---7-8-7----|
C|----5~~~---8---7-8-7----|

 (1:42-2:09)
               repeats twice
D|---------------------------------------------------------------------------|
A|---------------------------------------------------------------------------|
F|---------------------------------------------------------------------------|
C|---------------------------------------------------------------------------|
G|--8-8-8-8-8-8-8-7-7-7-7-7-7-7----------------------------------------------|
C|--8-8-8-8-8-8-8-7-7-7-7-7-7-7--0000-0000-0000-0000-0000000-----------------|

							*lead
D|-8-8-8---------------------------------------------------------------------|
A|-------6-6-6-5-5-5---------------------------------------------------------|
F|-------------------5-5-5-7-7-7b--------------------------------------------|
C|---------------------------------------------------------------------------|
G|---------------------------------------------------------------------------|
C|---------------------------------0000-0000-0000-0000-0000000---------------|


							*rhythm
D|---------------------------------------------------------------------------|
A|---------------------------------------------------------------------------|
F|---------------------------------------------------------------------------|
C|---------------------------------------------------------------------------|
G|-8-8-8-8-8-8-8-10-10-10-10-10-10-10----------------------------------------|
C|-8-8-8-8-8-8-8-10-10-10-10-10-10-10--0000-0000-0000-0000-00000000----------|


the last held note rings out to the end of the section	*lead
D|-8-8-8---------------------------------------------------------------------|
A|-------6-6-6-5-5-5----------------5-6~~~~~~~~------------------------------|
F|-------------------5-5-5-7-7-7b--------------------------------------------|
C|---------------------------------------------------------------------------|
G|---------------------------------------------------------------------------|
C|---------------------------------------------------------------------------|

  (2:09-2:12)
D|------------------|
A|------------------|
F|------------------|
C|--8~~-----11~~----|
G|--5~~-----8~~-----|
C|--5~~-----8~~-----|

  (2:12-2:21) 
D|---------------------------------------------------------------------------|
A|---------------------------------------------------------------------------|
F|---------------------------------19\17-----17\15---------------------------|
C|---------------------------------x--x------x--x----------------------------|
G|---------------------------------17\15-----15\13---------------------------|
C|-0000-0000-0000-0000-0000-0000----------0----------------------------------|

D|---------------------------------------------------------------------------| 
A|---------------------------------------------------------------------------|
F|---------------------------------------------------------------------------|
C|---------------------------------------------------------------------------|
G|----------------------------------0----------------------------------------|
C|-0-0000-0000-0000-0000-0000-0000--0----------------------------------------|
 
  (2:21-2:34) (palm muted hard)
D|---------------------------------------------------------------------------|
A|---------------------------------------------------------------------------|
F|---------------------------------------------------------------------------|
C|---------------------------------------------------------------------------|
G|-------------------------------------------------0-------------------------|
C|--0000-0000-0000-0000-000-000000--0000-0000-0000-0-------------------------|
          

   (let the last note of each section ring out)
D|---------------------------------------------------------------------------|
A|---------------------------------------------------------------------------|
F|---------------------------------------------------------------------------|
C|--------------------------------------------1-1-0-1-1-0-1------------------|
G|--------------------------------------------1-1-0-1-1-0-1------------------|
C|--0000-0000-0000-0000-000-000000--0000-0000-1-1-0-1-1-0-1------------------| 

  (2:34-3:01) repeats then plays the alternate ending
D|---------------------------------------------------------------------------|
A|---------------------------------------------------------------------------|
F|---------------------------------------------------------------------------|
C|--8------7\----8-----7\----------------------------------------------------|
G|--8------7\----8-----7\----------------------------------------------------|
C|--8--00--7\----8-00--7\--0-0-0-0-0-0-0-0-----------------------------------|


D|-----------------------------------------|----------------------------------|
A|-----------------------------------------|----------------------------------|
F|-----------------------------------------|----------------------------------|
C|--8-----7\----8------7\------------------|-1-1-0-1-1-0-1---0~~~~~~~~--------|
G|--8-----7\----8------7\--1-1-0-1-1-0-1---|-1-1-0-1-1-0-1---0~~~~~~~~--------|
C|--8-00--7\----8--00--7\--1-1-0-1-1-0-1---|-1-1-0-1-1-0-1---0~~~~~~~~--------|


************************************
 
| /   slide up
| \   slide down
| t   tremolo
| h   hammer-on
| p   pull-off
| ~   vibrato
| +   harmonic
| x   Mute note
| b   Bend
| pb  Pre-bend
| br  Bend release
| pbr Pre-bend release
| brb Bend release bend

************************************
Добавлено: 09.05.2012
Другие материалы по этой песне:

Страница создана 09.05.2012
http://primanota.ru/the-devil-wears-prada/vengeance-chords.htm
Привет, Гость.
Предлагаем пройти революционный курс по гитаре.
Подарок от PrimaNota.Ru, забирай!