PrimaNota.ru - самый крупный в мире бесплатный архив песенных текстов, аккордов, табулатур и нот


The Devil Wears Prada - Martyrs - таба, видео

Регистрация Запомнить меня
Войти через:  Facebook Google Twitter Vk Yandex Mail.ru

The Devil Wears Prada - Martyrs - таба, видео

Печатать
Просмотров: 159
Уроки эстрадного вокала в Санкт-Петербурге
Авторы музыки: The Devil Wears Prada

-------------------------------------------------------------------------------
                             Martyrs - The Devil Wears Prada
-------------------------------------------------------------------------------
Tabbed by: c4the2
So this is what i could get from listening to it i know most of it might not be right

Tuning:Drop A
AEADF#B

Intro:
B|--------------------------------------------------------5+----------------|
F#|--------------------------------------------------------5+---------------|
D|----------------------------------------------------------5+--------------|
A|-----------------------------------------------------------5+-------------|
E|-------------------------------------00-00-00-0-0-0-00------5+---00-00----|
A|-0-1-3-1b-0-1-3-1b-1b-0-1-3-1-(x3)---00-00-00-0-0-0-00-----------00-00----|
   . . .    . . .         . . .        .. .. .. . . . ..           .. ..


B|--------------------------------------------------------------------------|
F#|-------------------------------------------------------------------------|
D|--------------------------------------------------------------------------|
A|--------------------------------------------------------------------------|
E|--------------------------------------------------------------------------|
A|-0-1-3-1b-0-1-3-1b-1b-0-1-3-1-----0-1-3-1b-0-1-3-\12--13--14-15-----------|
   . . .    . . .         . . .     . . .    . . .

Verse thing?:
B|--------------------------------------------------------------------------|
F#|-------------------------------------------------------------------------|
D|--------------------------------------------------------------------------|
A|-------------------------------(repeat this three times)------------------|
E|--------------------------------------------------------------------------|
A|-0h12h13-0h13h15-12h13p0(x2)-------0h12h13-0h13h15(x3)----------00000(x3)-|

Pre-chorus:
B|--------------------------------------------------------------------------|
F#|-----------------------------------1212h14\15~~~-------------------------|
D|--------------------------------------------------------------------------|
A|--8-8-8~~~~------5-5-5~~~~------------------------------------------------|
E|--8-8-8~~~~------5-5-5~~~~------------------------------------------------|
A|--8-8-8~~~~------5-5-5~~~~------------------------------------------------|

Chorus:
B|15h17p15h17p15h17---------------------------------------------------------|
F#|-------------------------------------------------------------------------|
D|--------------------------------------------------------------------------|
A|--------------------------------------------------------------------------|
E|--------------------------------------------------------------------------|
A|--------------------------------------------------------------------------|

B|17T20p17T20p17T20p17T20p17T20p17T20p17T20p17T20p17------------------------|
F#|-------------------------------------------------------------------------|
D|--------------------------------------------------------------------------|
A|--------------------------------------------------------------------------|
E|--------------------------------------------------------------------------|
A|--------------------------------------------------------------------------|

B|15h17p15h17p15h17p15h17p15h17p15h17p15h17p15h17---------------------------|
F#|-----------------------------------------------171717171717--------------|
D|------------------------------------------------------------181818181818--|
A|--------------------------------------------------------------------------|
E|--------------------------------------------------------------------------|
A|--------------------------------------------------------------------------|

Pre-verse:
B|--------------------------------------------------------------------------|
F#|-------------------------------------------------------------------------|
D|--------------------------------------------------------------------------|
A|(the other guitar kind of does an echo of this to make it seem continuous)|
E|--------------------------------------------------------------------------|
A|000-00-00-00-00-000-00-00-00-00-------------------------------------------|
  ... .. .. .. .. ... .. .. .. ..

Intro 2?:
B|--------------------------------------------------------------------------|
F#|-------------------------------------------------------------------------|
D|--------------------------------------------------------------------------|
A|--------------------------------------------------------------------------|
E|--------------------------------------------------------------------------|
A|0-1-3-1b-0-1-3-1b-1b-0-1-3-1-(x2)--0--00-00-00-00-00-00-00-00-\12-13-14-15|
  . . .    . . .         . . .          .. .. .. .. .. .. .. ..

Verse thing?:
B|--------------------------------------------------------------------------|
F#|-------------------------------------------------------------------------|
D|--------------------------------------------------------------------------|
A|-------------------------------(repeat this three times)------------------|
E|--------------------------------------------------------------------------|
A|-0h12h13-0h13h15-12h13p0(x2)-------0h12h13-0h13h15(x3)----------00000(x3)-|

Pre-chorus:
B|--------------------------------------------------------------------------|
F#|-----------------------------------1212h14\15~~~-------------------------|
D|--------------------------------------------------------------------------|
A|--8-8-8~~~~------5-5-5~~~~------------------------------------------------|
E|--8-8-8~~~~------5-5-5~~~~------------------------------------------------|
A|--8-8-8~~~~------5-5-5~~~~------------------------------------------------|

Chorus:
B|15h17p15h17p15h17---------------------------------------------------------|
F#|-------------------------------------------------------------------------|
D|--------------------------------------------------------------------------|
A|--------------------------------------------------------------------------|
E|--------------------------------------------------------------------------|
A|--------------------------------------------------------------------------|

B|17T20p17T20p17T20p17T20p17T20p17T20p17T20p17T20p17------------------------|
F#|-------------------------------------------------------------------------|
D|--------------------------------------------------------------------------|
A|--------------------------------------------------------------------------|
E|--------------------------------------------------------------------------|
A|--------------------------------------------------------------------------|

B|15h17p15h17p15h17p15h17p15h17p15h17p15h17p15h17---------------------------|
F#|-----------------------------------------------171717171717--------------|
D|------------------------------------------------------------181818181818--|
A|--------------------------------------------------------------------------|
E|--------------------------------------------------------------------------|
A|--------------------------------------------------------------------------|

B|-----------------15h17p15h17p15h17----------------------------------------|
F#|1212h14\15~--------------------------------------------------------------|
D|--------------------------------------------------------------------------|
A|--------------------------------------------------------------------------|
E|--------------------------------------------------------------------------|
A|--------------------------------------------------------------------------|

B|17T20p17T20p17T20p17T20p17T20p17T20p17T20p17T20p17------------------------|
F#|-------------------------------------------------------------------------|
D|--------------------------------------------------------------------------|
A|--------------------------------------------------------------------------|
E|--------------------------------------------------------------------------|
A|--------------------------------------------------------------------------|

B|15h17p15h17p15h17p15h17p15h17p15h17p15h17p15h17---------------------------|
F#|-----------------------------------------------171717171717--------------|
D|------------------------------------------------------------181818181818--|
A|--------------------------------------------------------------------------|
E|--------------------------------------------------------------------------|
A|--------------------------------------------------------------------------|

Bridge:
B|--------------------------------------------------------------------------|
F#|-------------------------------------------------------------------------|
D|--------------------------------------------------------------------------|
A|--------------------------------------------------------------------------|
E|--------------------------------00-00-00-00-00-00-00-00-00-00-------------|
A|000-00-00-00-00-00-00-00-00-00--00-00-00-00-00-00-00-00-00-00-------------|
  ... .. .. .. .. .. .. .. .. ..  .. .. .. .. .. .. .. .. .. ..

B|--------------------------------------------------------------------------|
F#|-------------------------------------------------------------------------|
D|--------------------------------------(all of this twice)-----------------|
A|--------------------------------------(2nd time stop at last 1)-----------|
E|---------1-3---1-3-3*---1-3-1-3-1-3---------------------------------------|
A|0000-000--0-000------00--0-0-0-0-0----------------------------------------|
  .... ...  . ...      ..  . . . . .

B|--------------------------------------------------------------------------|
F#|-------------------------------------------------------------------------|
D|--------------------------------------------------------------------------|
A|--------------------------------------------------------------------------|
E|0000--00000-0000-00000-0000-00000-0000-00000------------------------------|
A|0000--00000-0000-00000-0000-00000-0000-00000------------------------------|
  ....  ..... .... ..... .... ..... .... .....
************************************
| .   palm mute
| *   Pinch Harmonics
| /   slide up
| \   slide down
| h   hammer-on
| p   pull-off
| ~   Sustain
| +   harmonic
| x   Mute note
| b   Bend
| pb  Pre-bend
| br  Bend release
| pbr Pre-bend release
| brb Bend release bend
| +   Harmonics
| T   Tap with other finger
************************************


Wow that took me a while to tab and yes i know that most of it might be wrong and it 
tried my best to get the patterns right for everything but this is my first full tab so go 
easy :D
Добавлено: 14.08.2013
Другие материалы по этой песне:

Страница создана 14.08.2013
http://primanota.ru/the-devil-wears-prada/martyrs-chords.htm
Привет, Гость.
Предлагаем пройти революционный курс по гитаре.
Подарок от PrimaNota.Ru, забирай!