PrimaNota.ru - самый крупный в мире бесплатный архив песенных текстов, аккордов, табулатур и нот


The Devil Wears Prada - Anatomy - текст песни, таба, видео

Регистрация Запомнить меня
Войти через:  Facebook Google Twitter Vk Yandex Mail.ru

The Devil Wears Prada - Anatomy - текст песни, таба, видео

Печатать
Просмотров: 165
Уроки эстрадного вокала в Санкт-Петербурге
-------------------------------------------------------------------------------
			     Anatomy - The Devil Wears Prada
-------------------------------------------------------------------------------
Tabbed by: Rsxkilla
Email: gpknights19@hotmail.com

Tuning: DROP B

youtube cover: http://www.youtube.com/watch?v=YALipdpEPxg

if i missed any repeat notices please read the time slots on the tab
breakdown sections may be tabbed slightly off beat but all the notes should be there (i 
pan right to learn this part)

      Intro 0:00-0:27
C#|-------------------------------------------------------------|
G#|-------------------------------------------------------------|
E |----------------------------------8-8------------------------|
B |--0-------1-------1-0------0------x-x------1------4----------|
F#|--0--0-0--1--0-0--1-0--0-0-0--0-0-6-6--0-0-1--0-0-4----------|
B |--0--0-0--1--0-0--1-0--0-0-0--0-0------0-0-1--0-0-4----------|x6


         0:28-0:40
C#|-------------------------------------------------------------|
G#|-------------------------------------------------------------|
E |-------------------------------------------------------------|
B |--0-0-----------0-0------------------------------------------|
F#|--0-0--0-0-0-0--0-0------------0-0-0-0--5--------------------|
B |--0-0--0-0-0-0--0-0------------0-0-0-0-----0-0-7h8-----------|

C#|-------------------------------------------------------------|
G#|-------------------------------------------------------------|
E |-------------------------------------------------------------|
B |--0-0-----------0-0------------------------------------------|
F#|--0-0--0-0-0-0--0-0-----------0-0-0-0------------------------|
B |--0-0--0-0-0-0--0-0-----------0-0-0-0--8--0-0-4h5------------|

C#|-------------------------------------------------------------|
G#|-------------------------------------------------------------|
E |-------------------------------------------------------------|
B |--0-0-----------0-0------------------------------------------|
F#|--0-0--0-0-0-0--0-0----------0-0-0-0--8----------------------|
B |--0-0--0-0-0-0--0-0----------0-0-0-0-----0-0-10h12-----------|

C#|-------------------------------------------------------------|
G#|-------------------------------------------------------------|
E |-------------------------------------------------------------|
B |--0-0-----------0-0------------------------------------------|
F#|--0-0--0-0-0-0--0-0------------0-0-0-0--5--------------------|
B |--0-0--0-0-0-0--0-0------------0-0-0-0-----0-0-7h8-----------|

	0:41-53
C#|-------------------------------------------------------------|
G#|-------------------------------------------------------------|
E |-------------------------------------------------------------|
B |-------------------------------------------------------------|
F#|--9-------9-------9h10p9-----8--8---------8~~~~--------------|
B |----0-0-0---0-0-0--------0-0------0-0-0-0--------------------|x2

C#|-------------------------------------------------------------|
G#|-------------------------------------------------------------|
E |-------------------------------------------------------------|
B |-------------------------------------------------------------|
F#|--13-------13-------13h15p13-----12--12---------12~~~~-------|
B |-----0-0-0----0-0-0----------0-0--------0-0-0-0--------------|x2

	0:54-57 (breakdown rhythm may be slightly off)
C#|-------------------------------------------------------------|
G#|-------------------------------------------------------------|
E |-------------------------------------------------------------|
B |-0-----------------------------------------------------------|
F#|-0---0-0----------0-0-----------0-0--------------------------|
B |-0---0-0--0-0-0-0-0-0---0-0-0-0-0-0--------------------------|

	0:58-1:12
C#|-------------------------------------------------------------|
G#|-------------------------------------------------------------|
E |-------------------------------------------------------------|
B |-0~--------0~--0-0------0~-0~-0------0~--4--0--1--4~---------|
F#|-0~-0--0-0-0~--0-0--0-0-0~-0~-0--0-0-0~--4--0--1--4~---------|
B |-0~-0--0-0-0~--0-0--0-0-0~-0~-0--0-0-0~--4--0--1--4~---------|

C#|-------------------------------------------------------------|
G#|-------------------------------------------------------------|
E |-------------------------------------------------------------|
B |-0~--------0~--0-0------0~-0~-0------0~--4--0--1~~~~---------|
F#|-0~-0--0-0-0~--0-0--0-0-0~-0~-0--0-0-0~--4--0--1~~~~---------|
B |-0~-0--0-0-0~--0-0--0-0-0~-0~-0--0-0-0~--4--0--1~~~~---------|


C#|-------------------------------------------------------------|
G#|-------------------------------------------------------------|
E |-------------------------------------------------------------|
B |-0~--------0~--0-0------0~-0~-0------0~--4--0--1--4~---------|
F#|-0~-0--0-0-0~--0-0--0-0-0~-0~-0--0-0-0~--4--0--1--4~---------|
B |-0~-0--0-0-0~--0-0--0-0-0~-0~-0--0-0-0~--4--0--1--4~---------|

	1:13-:24
C#|-------------------------------------------------------------|
G#|-------------------------------------------------------------|
E |-------------------------------------------------------------|
B |-0------0----0-----------------------------------------------|
F#|-0--0-0-0----0--0-0-0--0-0-0--0-0-0---------0-0-0------------|
B |-0--0-0-0----0--0-0-0--0-0-0--0-0-0---0-0---0-0-0------------|

C#|----------------------|
G#|----------------------|
E |----------------------|
B |-0--------------------|
F#|-0--0-0-0--0-0-0------|
B |-0--0-0-0--0-0-0------|
	(rhythm maybe be off)
C#|-------------------------------------------------------------|
G#|-------------------------------------------------------------|
E |-------------------------------------------------------------|
B |-0------0----0-----------------------------------------------|
F#|-0--0-0-0----0--0-0-0--0-0-0--0-0-0---------0-0-0------------|
B |-0--0-0-0----0--0-0-0--0-0-0--0-0-0---0-0---0-0-0------------|x2

C#|-------------------------------------------------------------------|
G#|-------------------------------------------------------------------|
E |-------------------------------------------------------------------|
B |----3h7---2h5--0------3h7---2h5--0------3h7--2h5--0------3h7-------|
F#|-0-------------0-----------------0----------------0----------------|
B |-0------0------0--0-0-----0------0--0-0-----0-----0--0-0------0(x8)|

	1:25-:51
C#|-------------------------------------------------------------|
G#|-------------------------------------------------------------|
E |----------------------------------8-8------------------------|
B |--0-------1-------1-0------0------x-x------1------4----------|
F#|--0--0-0--1--0-0--1-0--0-0-0--0-0-6-6--0-0-1--0-0-4----------|
B |--0--0-0--1--0-0--1-0--0-0-0--0-0------0-0-1--0-0-4----------|x2

C#|-----------------------------|
G#|-----------------------------|
E |-----------------------------|
B |--0-------1-------1-0--------|
F#|--0--0-0--1--0-0--1-0-0------|
B |--0--0-0--1--0-0--1-0-0------|

C#|-------------------------------------------|
G#|-------------------------------------------|
E |-------------------------------------------|
B |--0-------1-------1-0----------------------|
F#|--0--0-0--1--0-0--1-0-0------------8----3--|
B |--0--0-0--1--0-0--1-0-0---0--8--0-----0----|

C#|----------------------------------------|
G#|----------------------------------------|
E |----------------------------------------|
B |---------------------7----------8-------|
F#|--------8-----3-----------5-------------|
B |--8--0-----0-----0-----0-----0----------|4x

	1:52-2:16
C#|--------------------------------------------------|
G#|--------------------------------------------------|
E |--------------------------------------------------|
B |--------------------------------------------------|
F#|--0--------------------------------------1-1-4-0--|
B |--0---3b---0---1b---0---3b---0---1b---0-----------|4x

C#|-----------------------------|-------------|
G#|-----------------------------|-------------|
E |-----------------------------|-------------|
B |-----------------------------|-------------|
F#|--0---0---0---0------1-1-4-0-|--0---0--0-0-|
B |--0---0---0---0---0----------|--0---0--0-0-|4x(fourth time play 2nd ending)

	2:16-2:42
C#|---------|
G#|---------|
E |---------|
B |--0~-----|
F#|--0~-----|
B |--0~-----|8x

	2:43-3:33
C#|----------------------------------------------------------------|
G#|----------------------6------6-------6-6------------------------|
E |--7-8-7--5-7----------5------5-------5-5------------------------|
B |--x-x-x--x-x-------------------------------8------5------7------|
F#|--5-6-5--3-5-------------------------------8(x12)-5(x12)-7(x12)-|
B |--------------0-0-0-0--0-0-0---0-0-0-------8------5------7------|(4x)

	3:34-3:40

C#|-------------------------------------------------------------|
G#|-------------------------------------------------------------|
E |----------------------------------8-8------------------------|
B |--0-------1-------1-0------0------x-x------1------4----------|
F#|--0--0-0--1--0-0--1-0--0-0-0--0-0-6-6--0-0-1--0-0-4----------|
B |--0--0-0--1--0-0--1-0--0-0-0--0-0------0-0-1--0-0-4----------|

C#|------------------------------------|
G#|------------------------------------|
E |------------------------------------|
B |--0-------1-------1-0---------------|
F#|--0--0-0--1--0-0--1-0--0-0----------|
B |--0--0-0--1--0-0--1-0--0-0----------|

************************************

| /   slide up
| \   slide down
| h   hammer-on
| p   pull-off
| ~   vibrato
| +   harmonic
| x   Mute note
| b   Bend
| pb  Pre-bend
| br  Bend release
| pbr Pre-bend release
| brb Bend release bend

************************************
Добавлено: 13.10.2013
Другие материалы по этой песне:
  • Аккорды и текст

Страница создана 23.08.2013
http://primanota.ru/the-devil-wears-prada/anatomy-chords.htm
Привет, Гость.
Предлагаем пройти революционный курс по гитаре.
Подарок от PrimaNota.Ru, забирай!