PrimaNota.ru - самый крупный в мире бесплатный архив песенных текстов, аккордов, табулатур и нот


The Devil Wears Prada - Dez Moines - текст песни, таба, бас-таба, драм-таба, видео

Регистрация Запомнить меня
Войти через:  Facebook Google Twitter Vk Yandex Mail.ru

The Devil Wears Prada - Dez Moines - текст песни, таба, бас-таба, драм-таба, видео

Печатать
Просмотров: 172
Уроки эстрадного вокала в Санкт-Петербурге
-------------------------------------------------------------------------------
			     Dez Moines  - The Devil Wears Prada
-------------------------------------------------------------------------------
Tabbed by:Samson Sorsenginh


Tuning:Drop D

e|------------------|
B|------------------|
G|-7---9---10--12---|
D|------------------|
A|-5---7---8---10---|
D|------------------|


with delay
e|--------------------------------------------------------------|
B|-----------------------------10101010-8--11-10-131313131313---|
G|-99999--10--9-999-1212-1010-----------------------------------| 2X
D|--------------------------------------------------------------|
A|--------------------------------------------------------------|
D|--------------------------------------------------------------|


e|------------------|
B|------------------|
G|------------------|
D|-0-------8---10---|
A|-0-------8---10---|
D|-0-------8---10---|


e|-------------------------------------------------------------|
B|-------------------------------------------------------------|
G|-------------------------------------------------------------|
D|-------------------------------------------------------------|
A|------12---------1212------12-----88888888-1010101010101010--|
D|-0000----0-0-000------0000----0-0-88888888-1010101010101010--|


e|-------------------------------------------------------------------------|
B|-------------------------------------------------------------------------|
G|-----------------------------------------------14-14-14---12-12-12-------|
D|-------------------------------------------------------------------------|
A|--------12----------------1212-------12--------12-12-12---10-10-10-------|
D|-0000000--0000000000000000----0000000--000000----------------------------|


e|-----|
B|-----|
G|-----|
D|-0---|
A|-0---|
D|-0---|

Cool Riff
e|---------------------------------------|
B|---------------------------------------|
G|---------------------------------------| 4x
D|---------------------------------------|
A|-12----13-12-15-13-12----------10-8-7--|
D|---000----------------00000000---------|


e|---------------------------------------|
B|---------------------------------------|
G|---------------------------------------| 
D|---------------------------------------|
A|-12----13-12-15-17-15--------13-12-----|
D|---000----------------000000-----------|


e|---------------------|
B|---------------------|
G|---------------------|
D|---------------------|
A|-0--00-00-00-00-00---|
D|-0--00-00-00-00-00---|


e|---------------------------------------|
B|---------------------------------------|
G|---------------------------------------| 
D|---------------------------------------|
A|-12----13-12-15-17-15--------13-12-----|
D|---000----------------000000-----------|


e|-------------------------------------|
B|-------------------------------------|
G|-------------------------------------|
D|-------------------------------------|
A|-0--00-00-00--00-00-00--00-00-0------|
D|-0--00-00-00--00-00-00--00-00-0------|


e|----------------------------------------------|
B|----------------------------------------------|
G|-------------------------------------14-12----|
D|----------------------------------------------|
A|-0--00-00-00--00-00-00--00-00-00-00--12-10----|
D|-0--00-00-00--00-00-00--00-00-00-00-----------|


e|-------15h17p15--------|  |-------15h17p15-----| repeat
B|-13h15----------18-17--|  |-13h15----------15--| both 4x
G|-----------------------|  |--------------------|
D|-----------------------|  |--------------------|
A|-----------------------|  |--------------------|
D|-----------------------|  |--------------------|


e|-------------|
B|-------------|
G|-------------|you figure out stumming patturn
D|-8--5--0--0--|
A|-8--5--0--0--|
D|-8--5--0--0--|


e|---------|
B|---------|
G|---------|
D|-8---5---|
A|-8---5---|
D|-8---5---|

e|---------------------------------------|
B|---------------------------------------|
G|---------------------------------------|
D|---------------------------------------|
A|------------------4444444444444444-----|
D|-0000000000000000----------------------|


e|------------------------------------|
B|------------------------------------|you figure out stumming patturn
G|-14--15--17--18--19--21--22--24-----|
D|------------------------------------|
A|-12--13--15--16--17--19--20--22-----|
D|------------------------------------|


e|-------------------|
B|-------------------|
G|-------------------|
D|-------------------|
A|-------------------|
D|-0000000000000000--|

Breakdown
e|-----------------------------------------------------------|
B|-----------------------------------------------------------|
G|-----------------------------------------------------------|
D|---------7---------------------------7---------------------|
A|-----8-5-------------------------8-5---------------8-7-8---|
D|-000-------0-0-000-0-000-000-000-------0-0-000-000---------|


e|-----------------------------------------------------------------|
B|-----------------------------------------------------------------|
G|-----------------------------------------------------------------|
D|----------10----------------------------10-----------------------|
A|-----12-8--------------------------12-8----------------12-10-12--|
D|-000---------0-0-000-0-000-000-000---------0-0-000-000-----------|


e|-------------------------------|
B|-------------------------------| 2x
G|-------------------------------|
D|-------------------------------|
A|-000------------000-0-000-000--|
D|-000------------000-0-000-000--|



e|---------------------------------------------------------------|
B|---------------------------------------------------------------|
G|---------------------------------------------------------------|
D|---------7---------------------------7-------------------------|
A|-----8-5-------------------------8-5---------------------------|
D|-000-------0-0-000-0-000-000-000-------0-0-0-0000000000000000--|


this next part is pick very fast
so basiclly double what i wrote down on the next part

with delay 
e|-----------------------------------------------------------------------|
B|----------------------------------------------66666666666666666666666--|
G|-777777777777777777777777777777--999999999999--------------------------|
D|-----------------------------------------------------------------------|
A|-----------------------------------------------------------------------|
D|-----------------------------------------------------------------------|


e|---------------------------------------------------------------|
B|-1010101010101010--12121212-14141414-101010101010101010101010--|
G|---------------------------------------------------------------|
D|---------------------------------------------------------------|
A|---------------------------------------------------------------|
D|---------------------------------------------------------------|


e|-------------------------------------------------------------------------|
B|151515151515151515151515151515151515--1717171717171717--1818181818181818-|
G|-------------------------------------------------------------------------|
D|-------------------------------------------------------------------------|
A|-------------------------------------------------------------------------|
D|-------------------------------------------------------------------------|


e|-20--18--17--18--17--|
B|---------------------|
G|---------------------|
D|---------------------|
A|---------------------|
D|---------------------|


e|---------------------------------------|
B|---------------------------------------|
G|---------------------------------------| 4x
D|---------------------------------------|
A|-12----13-12-15-13-12----------10-8-7--|
D|---000----------------00000000---------|


e|---------------------------------------|
B|---------------------------------------|
G|---------------------------------------| 
D|---------------------------------------|
A|-12----13-12-15-17-15--------13-12-----|
D|---000----------------000000-----------|


e|---------------------|
B|---------------------|
G|---------------------|
D|---------------------|
A|-0--00-00-00-00-00---|
D|-0--00-00-00-00-00---|


e|---------------------------------------|
B|---------------------------------------|
G|---------------------------------------| 
D|---------------------------------------|
A|-12----13-12-15-17-15--------13-12-----|
D|---000----------------000000-----------|


e|-------------------------------------|
B|-------------------------------------|
G|-------------------------------------|
D|-------------------------------------|
A|-0--00-00-00--00-00-00--00-00-0------|
D|-0--00-00-00--00-00-00--00-00-0------|


Thanks for checking this out =]


| /  slide up
| \  slide down
| h  hammer-on
| p  pull-off
| ~  vibrato
| +  harmonic
| x  Mute note
===============================================================================
Добавлено: 26.10.2013
Другие материалы по этой песне:
  • Аккорды и текст

Страница создана 26.10.2013
http://primanota.ru/the-devil-wears-prada/dez-moines-chords.htm
Привет, Гость.
Предлагаем пройти революционный курс по гитаре.
Подарок от PrimaNota.Ru, забирай!