PrimaNota.ru - самый крупный в мире бесплатный архив песенных текстов, аккордов, табулатур и нот


The Devil Wears Prada - Born To Lose - текст песни, таба, видео

Регистрация Запомнить меня
Войти через:  Facebook Google Twitter Vk Yandex Mail.ru

The Devil Wears Prada - Born To Lose - текст песни, таба, видео

Печатать
Просмотров: 120
Tabbed by: smallen
Email: allensam83@yahoo.com

Tuning: B,F#,B,E,G#,C#

I tabbed the song how i play it.
This is my first ever tab. Great band, easy song to play but really fun. 
Please tell me how did, id appreciate feedback. Please rate. :)

Intro
|----------------------------------------------------------|
|----------------------------------------------------------|
|----------------------------------7b--------7b------------|
|-------------------------------------------------5-8-5-4--|
|-000---5---000---5-----------5b--------5b-----------------|
|-000-0---0-000-0---0-8-0-8-0----0----0----0----0----------|
  ... .   . ... .   .   .   .    .    .    .    .

|------------------------------------------------------------------|
|------------------------------------------------------------------|
|----------------------------------7b--------7b--------------------|
|-------------------------------------------------5-8-5-4-5-4------|
|-000---5---000---5-----------5b--------5b--------------------6-5--|
|-000-0---0-000-0---0-8-0-8-0----0----0----0----0------------------|
  ... .   . ... .   .   .   .    .    .    .    .

verse 1 x2
|------------------------------------------------------|
|------------------------------------------------------|
|------------------------------------------------------|
|-------5-----------------------5-----------8-8-8-8-8--|  
|-000-9---9-0-0-000-000---000-9---9-0-0-000-9-9-9-9-9--|
|-000-------0-0-000-000---000-------0-0-000------------|
  ...       . . ... ...   ...       . . ...

verse 2
|-------------------------------------------------------------------------|
|-------------------------------------------------------------------------|
|-------------------------------------------------------------------------|
|-12---------------12-----12---12---13-12---------------8-----8---3---5-6-|
|-12-0-0-0---0-0-0-12-0-0-12-0-12-0-13-12-0-0-0---0-0-0-8-0-0-8-0-3-0-5-6-|
|-12-0-0-0---0-0-0-12-0-0-12-0-12-0-13-12-0-0-0---0-0-0-8-0-0-8-0-3-0-5-6-|
     . . .   . . .    . .    .    .       . . .   . . .   . .   .   .

|----------------------------------------------------------------------|
|----------------------------------------------------------------------|
|----------------------------------------------------------------------|
|----------------12-----12---12---13-12---------------8-----8---3---5--|
|--0-0-0---0-0-0-12-0-0-12-0-12-0-13-12-0-0-0---0-0-0-8-0-0-8-0-3-0-5--|
|--0-0-0---0-0-0-12-0-0-12-0-12-0-13-12-0-0-0---0-0-0-8-0-0-8-0-3-0-5--|
   . . .   . . .    . .    .    .       . . .   . . .   . .   .   . 

breakdown 1 x2
|--------------------------------------------------------------|
|--------------------------------------------------------------|
|------------------------------------------------------7b------|
|--------------------------------------------------------------| 
|-----3---000-----3---000-000-000-----3---000-000-5b--------5--|
|-1-3---0-000-1-3---0-000-000-000-1-3---0-000-000----0----0----|
          ...         ... ... ...         ... ...    .    .

chorus x6 
|---------------------------------------------------10--------|
|------------------------------------10h12-------13-----------|
|--10-9-7-7-10-9-7-7-5h7-7--10-9-7-7-------13----------12-----|
|---------------------------------------------12----------14--|
|-------------------------------------------------------------|
|-------------------------------------------------------------|

bridge
|----------------------------|
|----------------------------|
|----------------------------|
|----------------------------|
|-000---5---000---5----------|
|-000-0---0-000-0---0-8-0-8--|
  ... .   . ... .   .   .    

verse 3
|----------------------------------------------------------|
|----------------------------------------------------------|
|----------------------------------7b--------7b------------|
|-------------------------------------------------5-8-5-4--|
|-000---5---000---5-----------5b--------5b-----------------|
|-000-0---0-000-0---0-8-0-8-0----0----0----0----0----------|
  ... .   . ... .   .   .   .    .    .    .    .

|------------------------------------------------------------------|
|------------------------------------------------------------------|
|----------------------------------7b--------7b--------------------|
|-------------------------------------------------5-8-5-4-5-4------|
|-000---5---000---5-----------5b--------5b--------------------6-5--|
|-000-0---0-000-0---0-8-0-8-0----0----0----0----0------------------|
  ... .   . ... .   .   .   .    .    .    .    .

guitar break 

verse 2
|---------------------------------------------------------------------------|
|---------------------------------------------------------------------------|
|---------------------------------------------------------------------------|
|-/-12---------------12-----12---12---13-12---------------8-----8---3---5-6-|
|-/-12-0-0-0---0-0-0-12-0-0-12-0-12-0-13-12-0-0-0---0-0-0-8-0-0-8-0-3-0-5-6-|
|-/-12-0-0-0---0-0-0-12-0-0-12-0-12-0-13-12-0-0-0---0-0-0-8-0-0-8-0-3-0-5-6-|
       . . .   . . .    . .    .    .       . . .   . . .   . .   .   .

|----------------------------------------------------------------------|
|----------------------------------------------------------------------|
|----------------------------------------------------------------------|
|----------------12-----12---12---13-12---------------8-----8---3---5--|
|--0-0-0-0-0-0-0-12-0-0-12-0-12-0-13-12-0-0-0-0-0-0-0-8-0-0-8-0-3-0-5--|
|--0-0-0-0-0-0-0-12-0-0-12-0-12-0-13-12-0-0-0-0-0-0-0-8-0-0-8-0-3-0-5--|
   . . . . . . .    . .    .    .       . . . . . . .   . .   .   . 

breakdown 1 x2
|--------------------------------------------------------------|
|--------------------------------------------------------------|
|------------------------------------------------------7b------|
|--------------------------------------------------------------| 
|-----3---000-----3---000-000-000-----3---000-000-5b--------5--|
|-1-3---0-000-1-3---0-000-000-000-1-3---0-000-000----0----0----|
          ...         ... ... ...         ... ...    .    .

chorus x6 
|---------------------------------------------------10--------|
|------------------------------------10h12-------13-----------|
|--10-9-7-7-10-9-7-7-5h7-7--10-9-7-7-------13----------12-----|
|---------------------------------------------12----------14--|
|-------------------------------------------------------------|
|-------------------------------------------------------------|

breakdown 2 
pretty much all just open palm muted chords not to hard to work out.

and there u have it.

Добавлено: 01.12.2013
Другие материалы по этой песне:
  • Аккорды и текст

Страница создана 01.08.2013
http://primanota.ru/the-devil-wears-prada/born-to-lose-chords.htm
Привет, Гость.
Предлагаем пройти революционный курс по гитаре.
Подарок от PrimaNota.Ru, забирай!