PrimaNota.ru - самый крупный в мире бесплатный архив песенных текстов, аккордов, табулатур и нот


Suicide Silence - You Only Live Once - текст песни, таба, видео

Регистрация Запомнить меня
Войти через:  Facebook Google Twitter Vk Yandex Mail.ru

Suicide Silence - You Only Live Once - текст песни, таба, видео

Печатать
Просмотров: 1333
Уроки эстрадного вокала в Санкт-Петербурге
-------------------------------------------------------------------------------
                             You Only Live Once - Suicide Silience
-------------------------------------------------------------------------------
Tabbed by:BOB13131366
Email: matty.eade@yahoo.co.uk

Im going to tab this slowly am only doing the intro atm... I am playing this in Drop A 
on an acoustic guitar forgive me if there are any mistakes and feel free to correct me.

Guitar 1- Chris Garza
Guitar 2- Mark Helymun
Guitar 3- Additonal Distorsotion Guitar

INTRO

Guitar 3
B|-----------------------------------||-------------------------------------|
G|-----------------------------------||-------------------------------------|
D|-----------------------------------||-------------------------------------|
A|-----------------7-----------------||-------------------------------------|
E|-6-6-7-6-7-6-6-6---6-6-10-6-6-9-6--||-6-6-7-6-7-6-6-6-9-7----9-7----9-----|
A|-----------------------------------||---------------------13-----13---13--|
  ...................................  .....................................

B|-----------------------------------||-------------------------------------|
G|-----------------------------------||-------------------------------------|
D|-----------------------------------||-------------------------------------|
A|-----------------7-----------------||-------------------------------------|
E|-6-6-7-6-7-6-6-6---6-6-10-6-6-9-6--||-6-6-7-6-7-6-6-6-9-7----9-7----9-----|
A|-----------------------------------||---------------------13-----13---13--|
  ...................................  .....................................
B|---------|
G|---------|
D|---------|
A|---------|
E|-6-6-7-6-|
A|---------|
  ........

Guitar 1 and 2
B|----------------------------------------------|
G|----------------------------------------------|
D|----------------------------------------------|
A|----------------------------------------------|
E|-1-1---1-1-1---1-1-1---1-1-1-1-1-1-1--1-1-1-1-|
A|-1-1---1-1-1---1-1-1---1-1-1-1-1-1-1--1-1-1-1-|
                               .......  .......

Guitar 1 and 2
B|----------------------------------------------|
G|----------------------------------------------|
D|----------------------------------------------|
A|----------------------------------------------|X2
E|-1-1---1-1-1---1-1-1---1-1-1-1-1-1-1--1-1-1-1-|
A|-1-1---1-1-1---1-1-1---1-1-1-1-1-1-1--1-1-1-1-|
                               .......  .......
Guitar 3
B|-----------------------------------||-------------------------------------|
G|-----------------------------------||-------------------------------------|
D|-----------------------------------||-------------------------------------|
A|-----------------7-----------------||-------------------------------------|
E|-6-6-7-6-7-6-6-6---6-6-10-6-6-9-6--||-6-6-7-6-7-6-6-6-9-7----9-7----9-----|
A|-----------------------------------||---------------------13-----13---13--|
  ...................................  .....................................

Guitar 1 and 2
B|---------------------------------------------|   |---|
G|---------------------------------------------|   |---|
D|---------------------------------------------|   |---|
A|---------------------------------------------| X4|---| <
Добавлено: 20.05.2012
Другие материалы по этой песне:

Страница создана 20.05.2012
http://primanota.ru/suicide-silence/you-only-live-once-chords.htm
Привет, Гость.
Предлагаем пройти революционный курс по гитаре.
Подарок от PrimaNota.Ru, забирай!