PrimaNota.ru - самый крупный в мире бесплатный архив песенных текстов, аккордов, табулатур и нот


Suicide Silence - Wake Up - текст песни, таба, бас-таба, видео

Регистрация Запомнить меня
Войти через:  Facebook Google Twitter Vk Yandex Mail.ru

Suicide Silence - Wake Up - текст песни, таба, бас-таба, видео

Печатать
Просмотров: 1257
Tabbed by: diego753
Email:cobhc_esp@yahoo.com

Tuning: Drop A

6 string Drop A:(from low to high) A E A D F# B
7 string Drop A:(from low to high) A E A D G B E


|------------------------------------|
|------------------------------------|
|------------------------------------|
|-1-1----------1-1----------1--11-11-|  x3
|-1-1-44444444-1-1-44444444-1--11-11-|
|-1-1----------1-1----------1--11-11-|
  . .          . .          .  .. ..
                                              
|------------------------------------|
|------------------------------------|
|------------------------------------|
|-1-1----------1-1----------1---1----|  x1
|-1-1-44444444-1-1-44444444-1---1----|
|-1-1----------1-1----------1---1----|  
  . .          . .          .   .


REPEAT WHOLE TAB X2

. = palm mute
Добавлено: 28.04.2012
Другие материалы по этой песне:

Страница создана 27.03.2012
http://primanota.ru/suicide-silence/wake-up-chords.htm
Привет, Гость.
Предлагаем пройти революционный курс по гитаре.
Подарок от PrimaNota.Ru, забирай!