PrimaNota.ru - самый крупный в мире бесплатный архив песенных текстов, аккордов, табулатур и нот


Suicide Silence - Green Monster - текст песни, таба, видео

Регистрация Запомнить меня
Войти через:  Facebook Google Twitter Vk Yandex Mail.ru

Suicide Silence - Green Monster - текст песни, таба, видео

Печатать
Просмотров: 311
Tabbed by:jarrod
Email:www.myspace.com/pooonany  aim=xjrodxlastx
im pretty sure this is rite! and sounds alot better on a 7-string! i suggest it. and if
learn the rest of the song and tab it gimme credit!
Tuning:Drop A

e|--------------------------|
B|--------------------------|
G|--------------------------|
D|--------------------------|
A|--5--1--2--1--5--1--2--1--|                          X1
E|--5--1--2--1--5--1--2--1--|
    *  *  *  *  *  *  *  *
e|-----------------------------------------------------------------------------|
B|-----------------------------------------------------------------------------|
G|-----------------------------------------------------------------------------|
D|-----------------------------------------------------------------------------|
A|--3-2-3-2--33-2-3-2-3--33-2-3--33--3333-2222-3333-7777-3333------------------|
E|--3-2-3-2-----2-3-2-3-----2-3------------------------------------------------|
    * * * *     * * * *     * *
e|-----------------------------------------------------------------------------|
B|-----------------------------------------------------------------------------|
G|-----------------------------------------------------------------------------|
D|-----------------------------------------------------------------------------|
A|--3-2-3-2--33-2-3-2-3--33-2-3--33--3333-2222-3333----------------------------|
                                >2 times after two mesaures
E|--3-2-3-2-----2-3-2-3-----2-3---------------------4444-3333---------------
    * * * *     * * * *     * *

e|------------------------------------------------------------------------------|
B|------------------------------------------------------------------------------|
G|------------------------------------------------------------------------------|
D|------------------------------------------------------------------------------|
A|--5--1--2--1--3--1--2--1---------------------------------------------------| -|        
   Xthe whole breakdown
E|--5--1--2--1-----1--2--1------------------------------------------------------|
    *  *  *  *  *  *  *  *


never wrote a tab before. so i made this as close as i could.
if it helps tell me.(on myspace) i wana no and when i get mor done then ill do it.


*=palm mute
"=harmonic
Добавлено: 25.04.2012
Другие материалы по этой песне:

Страница создана 26.02.2012
http://primanota.ru/suicide-silence/green-monster-chords.htm
Привет, Гость.
Предлагаем пройти революционный курс по гитаре.
Подарок от PrimaNota.Ru, забирай!