PrimaNota.ru - самый крупный в мире бесплатный архив песенных текстов, аккордов, табулатур и нот


Suicide Silence - Lifted - текст песни, таба, видео

Регистрация Запомнить меня
Войти через:  Facebook Google Twitter Vk Yandex Mail.ru

Suicide Silence - Lifted - текст песни, таба, видео

Печатать
Просмотров: 406
                  This is lifted by suicide silence
                  i wanted to make a tab of this epic
                  song because all there is now would
                  be the guitar pro tab,its in drop A
                7 string guitar please comment and rate.
               it can also be played in drop A sharp/dropA#
                                Enjoy!

\-slide up
/-pick slide


intro echo drops
e|---------------------------------------------------------------------|
b|---------12-12-12----------11-11-11----------------------------------|
g|-----------------------------------------------6-6-6----------9-9-9--|
d|---------------------------------------------------------------------|
a|---------------------------------------------------------------------|
e|--2-2-2-------------3-3-3--------------1-1-1------------4-4-4--------|
a|---------------------------------------------------------------------|

other part of intro
e|---------------------------------------------------------------------|
b|---------------------------------------------------------------------|
g|---------------------------------------------------------------------|
d|--4----5-----------------4----5--------------------------------------|
a|--4----5----1------4-----4----5----1---------------------------------|
e|--2----3----1------4-----2----3----1----4---2---1--4--1--4-----------|
a|------------1------4---------------1----4---2---1--4--1--4-----------|


next riff
e|---------------------------------------------------------------------|
b|---------------------------------------------------------------------|
g|---------------------------------------------------------------------|
d|--4--------------4--------------5-------------5----------------------|
a|----4--------------4--------------4-------------4--------------------|
e|-------2-3-2-3--------2-3-2-3--------3-2-3-2-------3-2-3-2-----------|
a|---------------------------------------------------------------------|

one the last time play the last part once
e|---------------------------------------------------------------------|
b|---------------------------------------------------------------------|
g|---------------------------------------------------------------------|
d|---------------------------------------------------------------------|
a|--1--------------1--------------4-------------4----------------------|
e|----1--------------1--------------4-------------4--------------------|
a|-------1-4-1-4--------1-4-1-4--------4-7-4-7-------4-7-4-7-----------|

next really sweet riff
e|-------------------------------------------------------------------------|
b|-------------------------------------------------------------------------|
g|-------------------------------------------------------------------------|
d|------------8--8-------------9--8--6\8------------8--8-------------------|
a|-------------------------------------------------------------------------|
e|--000--000--6--6---000--000--7--6--4\6--000--000--6--6--000--000--4-1-4--|
a|--000--000---------000--000-------------000--000--------000--000--4-1-4--|

on the last time on riff above play
e|---------------------------------------------------------------------|
b|---------------------------------------------------------------------|
g|---------------------------------------------------------------------|
d|------------8--8-----------------------------------------------------|
a|---------------------------------------------------------------------|
e|--000--000--6--6---4--1--4---4--1--4---4--1--4----7----3-------------|
a|--000--000---------4--1--4---4--1--4---4--1--4----7----3-------------|

then the breakdown thing
play quite a few times
e|---------------------------------------------------------------------|
b|---------------------------------------------------------------------|
g|---------------------------------------------------------------------|
d|---------------------------------------------------------------------|
a|---------------------------------------------------------------------|
e|--1------------1------------1-----------1------------4-1-4--4-1-4----|
a|-----2--1--2------2--1--2------2--1--2-----2--1--2---4-1-4--4-1-4----|

then last time is
e|---------------------------------------------------------------------|
b|---------------------------------------------------------------------|
g|---------------------------------------------------------------------|
d|---------------------------------------------------------------------|
a|---------------------------------------------------------------------|
e|--1------------1------------1------------4-1-4--4-1-4--4-1-4--7--3---|
a|-----2--1--2------2--1--2------2--1--2---4-1-4--4-1-4--4-1-4--7--3---|


next the really sweet riff
again (:
e|-------------------------------------------------------------------------|
b|-------------------------------------------------------------------------|
g|-------------------------------------------------------------------------|
d|------------8--8-------------9--8--6\8------------8--8-------------------|
a|-------------------------------------------------------------------------|
e|--000--000--6--6---000--000--7--6--4\6--000--000--6--6--000--000--4-1-4--|
a|--000--000---------000--000-------------000--000--------000--000--4-1-4--|

on the last time on riff above play
e|---------------------------------------------------------------------|
b|---------------------------------------------------------------------|
g|---------------------------------------------------------------------|
d|------------8--8-----------------------------------------------------|
a|---------------------------------------------------------------------|
e|--000--000--6--6---4--1--4---4--1--4---4--1--4----7----3-------------|
a|--000--000---------4--1--4---4--1--4---4--1--4----7----3-------------|

then this...
e|---------------------------------------------------------------------|
b|---------12-12-12----------11-11-11----------------------------------|
g|-----------------------------------------------6-6-6----------9-9-9--|
d|---------------------------------------------------------------------|
a|---------------------------------------------------------------------|
e|---------------------------------------------------------------------|
a|--2-2-2-------------3-3-3--------------1-1-1-----------4-4-4---------|

or this...
e|---------------------------------------------------------------------|
b|---------------------------------------------------------------------|
g|---------------------------------------------------------------------|
d|--4----5-----------------4----5--------------------------------------|
a|--4----5----1------4-----4----5----1---------------------------------|
e|--2----3----1------4-----2----3----1----4--2---1--4---1--4-----------|
a|------------1------4---------------1----4--2---1--4---1--4-----------|

then the brutal breakdown!
e|---------------------------------------------------------------------|
b|---------------------------------------------------------------------|
g|---------------------------------------------------------------------|
d|---------------------------------------------------------------------|
a|---------------------------------------------------------------------|
e|--0--0--0---0--0--0---0--0--0---0--0--0---0--0--0--------------------|
a|--1--1--1---1--1--1---1--1--1---1--1--1---1--1--1--------------------|

this part palm muted
heavy for sure dont
forget the pauses.
e|---------------------------------------------------------------------|
b|---------------------------------------------------------------------|
g|---------------------------------------------------------------------|
d|---------------------------------------------------------------------|
a|---------------------------------------------------------------------|
e|--0--0--0---0--0--0---0--0--0---0--0--0---0--0--0--------------------|
a|--0--0--0---0--0--0---0--0--0---0--0--0---0--0--0--------------------|


then a nice pick slide
if you dont know what
that is,slide your pick down the strings
e|---------------------------------------------------------------------|
b|---------------------------------------------------------------------|
g|---------------------------------------------------------------------|
d|---------------------------------------------------------------------|
a|--/////////////---////////////---------------------------------------|
e|--/////////////---////////////---------------------------------------|
a|--/////////////---////////////---------------------------------------|


next riff
e|---------------------------------------------------------------------|
b|---------------------------------------------------------------------|
g|---------------------------------------------------------------------|
d|--4--------------4--------------5-------------5----------------------|
a|----4--------------4--------------4-------------4--------------------|
e|-------2-3-2-3--------2-3-2-3--------3-2-3-2-------3-2-3-2-----------|
a|---------------------------------------------------------------------|


e|---------------------------------------------------------------------|
b|---------------------------------------------------------------------|
g|---------------------------------------------------------------------|
d|---------------------------------------------------------------------|
a|--1--------------1--------------4-------------4----------------------|
e|----1--------------1--------------4-------------4--------------------|
a|-------1-4-1-4--------1-4-1-4--------4-7-4-7-------4-7-4-7-----------|


then a little different
next riff
e|-------------------------------------------------------------------------|
b|-------------------------------------------------------------------------|
g|-------------------------------------------------------------------------|
d|--4------------4---5------------5----------------------------------------|
a|----4----------4-----4----------5---1-------------1---4--------------4---|
e|-------2-3-2-3-2--------3-2-3-2-3-----1-----------1-----4------------4---|
a|-----------------------------------------1-4-1-4--1--------4-7-4-7---4---|


then the sweet sweep picking
i have rythem under this for
those who cant sweep well...
play a few times
e|-----------------10h14h15p14p10--------------------------------------|
b|--------------12----------------12-----------------------------------|
g|-----------11----------------------11--------------------------------|
d|--------12----------------------------12-----------------------------|
a|--10h14----------------------------------14--------------------------|
e|---------------------------------------------------------------------|
a|---------------------------------------------------------------------|

e|----------------9h13h14p13p9-----------------------------------------|
b|-------------11--------------11--------------------------------------|
g|----------10--------------------10-----------------------------------|
d|-------11--------------------------11--------------------------------|
a|--9h13--------------------------------13-----------------------------|
e|---------------------------------------------------------------------|
a|---------------------------------------------------------------------|

Then...
e|-----------------10h14h15T19p14p10-----------------------------------|
b|--------------12-------------------12--------------------------------|
g|-----------11-------------------------11-----------------------------|
d|--------12-------------------------------12--------------------------|
a|--10h14-------------------------------------14-----------------------|
e|---------------------------------------------------------------------|
a|---------------------------------------------------------------------|

This again few times...
e|-----------------10h14h15p14p10--------------------------------------|
b|--------------12----------------12-----------------------------------|
g|-----------11----------------------11--------------------------------|
d|--------12----------------------------12-----------------------------|
a|--10h14----------------------------------14--------------------------|
e|---------------------------------------------------------------------|
a|---------------------------------------------------------------------|

e|----------------9h13h14p13p9-----------------------------------------|
b|-------------11--------------11--------------------------------------|
g|----------10--------------------10-----------------------------------|
d|-------11--------------------------11--------------------------------|
a|--9h13--------------------------------13-----------------------------|
e|---------------------------------------------------------------------|
a|---------------------------------------------------------------------|

sweep picking rythem
find the rythem out
play a few times.
e|---------------------------------------------------------------|
b|---------------------------------------------------------------|
g|---------------------------------------------------------------|
d|--4444444---55555555-------------------------------------------|
a|--4444444---55555555----111111111------444444444---------------|
e|--2222222---33333333----111111111------444444444---------------|
a|------------------------111111111------444444444---------------|

then the last rythem
breakdown rythem (:
e|---------------------------------------------------------------|
b|---------------------------------------------------------------|
g|---------------------------------------------------------------|
d|---------------------------------------------------------------|
a|---------------------------------------------------------------|
e|--2-2-2-2-2---2-2-2-2-2----1--1--1---1-4--1-4------------------|
a|--2-2-2-2-2---2-2-2-2-2----1--1--1---1-4--1-4------------------|


                   thanks for checking out my tab
                    check out my other ones too
                      dont forget too rate and
                      comment,hope you enjoyed
                         this tab thanks (:
Добавлено: 23.05.2012
Другие материалы по этой песне:

Страница создана 27.02.2012
http://primanota.ru/suicide-silence/lifted-chords.htm
Привет, Гость.
Предлагаем пройти революционный курс по гитаре.
Подарок от PrimaNota.Ru, забирай!