PrimaNota.ru - самый крупный в мире бесплатный архив песенных текстов, аккордов, табулатур и нот


Styx - A Day - текст песни, бас-таба, видео

Регистрация Запомнить меня
Войти через:  Facebook Google Twitter Vk Yandex Mail.ru

Styx - A Day - текст песни, бас-таба, видео

Печатать
Просмотров: 43
Авторы музыки: John Curulewski

A Day
by Styx

Intro
4/4
            |-3-|                      |-3-|
||---------------------------|--------------------|
||o---------2-2-2-2----(2)---|---------2-2-2-2----|
||o-0-0-(0)----------------0-|-0-0-(0)------------|
||---------------------------|--------------------|


 1.
          |-3-|                      |-3-|
|--------------------------|---------------------||
|---------2-2-2-2----(2)---|---------2-2-2-2----o||
|-0-0-(0)----------------0-|-0-0-(0)------------o||
|--------------------------|---------------------||


  2.
          |-3-|
|--------------------|-------------|---------------||
|---------2-2-2-2----|-------------|-2-------------||
|-0-0-(0)------------|-2--2--2--2--|---------------||
|--------------------|-------------|----0-0-(0)----||


Pre-Verse
  $
  $$
|---------------|-------------2--0--|---------------|-------------2--0--||
|---------0h2-0-|-(0)---2h3h4-------|---------0h2-0-|-(0)---2h3h4-------||
|-0----0--------|-------------------|-0----0--------|-------------------||
|---------------|-------------------|---------------|-------------------||


Verse
                                                                            4x
||----------------|-------------2--0--|---------------|-------------2--0-----||
||o---------0h2-0-|-(0)---2h3h4-------|---------0h2-0-|-(0)---2h3h4---------o||
||o-0----0--------|-------------------|-0----0--------|---------------------o||
||----------------|-------------------|---------------|----------------------||


Chorus

|-------------------|-------------------|-------------------|------|
|-------------------|-------------------|-------------------|------|
|-0--0--0-0-0-0-0---|-------------------|-------------------|------|
|-----------------0-|-3--3--3-3-3-3-3-0-|-2--2--2-2-2-2-2-0-|-1----|


                                       D.S.
|----------|----------|----------|------------||
|----------|----------|----------|------------||
|----------|-5--------|-3--------|-2--2-------||
|-0--------|----------|----------|-------0----||


Interlude
                                            Fine
                                      4x
||----------------|-------------2--0---||-------||
||o---------0h2-0-|-(0)---2h3h4-------o||-------||
||o-0----0--------|-------------------o||-0-----||
||----------------|--------------------||-------||


Guitar Solo
    |-3-| |-3-| |-3-| |-3-|   |-3-| |-3-| |-3-| |-3-|
                                                       24x
||------2-0-----------------|-------------------0-1-2---||
||o---------0-2-----2-1-0---|-----------0-0-1-2--------o||
||o-0-3---------0-3-------3-|-0-2-3-2-3----------------o||
||--------------------------|---------------------------||


Keyboard Solo
   7/4
    |-3-| |-3-| |-3-| |-3-| |-3-|   |-3-| |-3-|
                                                4x
||------2-0-------2-0-------2-0-----------0-1-2--||
||o---------2---------2---------2-2p0-1-2-------o||
||o-0-3-------0-3-------0-3---------------------o||
||-----------------------------------------------||


                                      D.S.S. al Fine
   4/4
    |-3-| |-3-| |-3-| |-3-|   |-3-| |-3-| |-3-| |-3-|
||------2-0-----------------|-------------------0-1-2--||
||o---------0-2-----2-1-0---|-----------0-0-1-2-------o||
||o-0-3---------0-3-------3-|-0-2-3-2-3---------------o||
||--------------------------|--------------------------||
Добавлено: 04.10.2015
Другие материалы по этой песне:
  • Аккорды и текст

Страница создана 26.07.2012
http://primanota.ru/styx/a-day-chords.htm
Привет, Гость.
Предлагаем пройти революционный курс по гитаре.
Подарок от PrimaNota.Ru, забирай!