PrimaNota.ru - самый крупный в мире бесплатный архив песенных текстов, аккордов, табулатур и нот


Styx - After You Leave Me - текст песни, бас-таба, видео

Регистрация Запомнить меня
Войти через:  Facebook Google Twitter Vk Yandex Mail.ru

Styx - After You Leave Me - текст песни, бас-таба, видео

Печатать
Просмотров: 52
Авторы музыки: George Clinton

Intro
  Q=90
 4/4
  Gtr I
  E E E E +H       E E E E E Q.     +W           W
|----------------|----------------|------------|------||
|----------------|-------7---5----|-(5)--------|------||
|-5-7---7-(7)----|-5-7------------|------------|------||
|----------------|----------------|------------|------||

 Pre-Verse
  $
  Wx8
|--------||
|--------||
|--------||
|--------||

 Verse
  Wx7          H    Q  S S S S
|------------|-----------------|
|------------|-----------------|
|------------|-------------5h7-|
|------------|---------5h7-----|

    E E E E +H       E E E E E Q.
||-----------------|----------------|
||o----------------|-------7---5----|
||o-5-7---7-(7)----|-5-7------------|
||------0----------|-----0----------|

  E E E E +H       E E E E +E  E S S S S
|----------------|-------------------------||
|----------------|-----5------------------o||
|-5-7---7-(7)----|-7-5---7-(7)-------5h7--o||
|-----0----------|-------------0-5h7-------||

 Chorus
  Q  Q  Q  E E   +W           E E E E +H       E E E E +Q   S S E
|--------------|------------|----------------|----------------------|
|--------------|------------|----------------|----------------------|
|--------------|------------|-5-7---7-(7)----|-5-7---7-(7)------5\--|
|-3--3-------5-|-(5)--------|-----0----------|-----0--------5h7-----|

                 D.S.
  Q  Q  Q  E E   +W
|--------------|---------||
|--------------|---------||
|--------------|---------||
|-3--3-------5-|-(5)-----||

 Interlude
  E E E E +H       E E E E E E. S E   E E E E +E. S Q    S S E E E +H
|----------------|------------------|---------------9--|------------------||
|----------------|-------7---5--x-7-|-------------x----|-------5----------||
|-5-7---7-(7)----|-5-7--------------|-5-7---7-(7)------|-7s5-----7-(7)----||
|-----0----------|-----0------------|-----0------------|-----7------------||

   Bridge
    E. S e E H      E. S e E H      E. S e E H      E. S e E E E +Q
||----------------|---------------|---------------|---------------------||
||o----7-7--------|----7-7--------|----7-7--------|----7-7-------------o||
||o---------------|---------------|---------------|--------------------o||
||--5-------------|-5-------------|-5-------------|-5----------5-(5)----||

                                     |-3-|    |-3-|
  E. S e E H      E. S e E H      Q  E E E Q  E E E   Q  Q  Q  Q
|---------------|---------------|-------------------|-------------|
|----7-7--------|----7-7--------|----------0--0-1-2-|-3--3--------|
|---------------|---------------|-2--2-3-4----------|-------1--2--|
|-5-------------|-5-------------|-------------------|-------------|

  E E E E +H       E E E E +Q   S S E
|----------------|---------------------||
|----------------|---------------------||
|-5-7---7-(7)----|-5-7---7-(7)------5\-||
|-----0----------|-----0--------5h7----||

   Chorus
    Q  Q  Q  E E   +W           E E E E +H       E E E E +Q   S S E
||---------------|------------|----------------|----------------------||
||o--------------|------------|----------------|---------------------o||
||o--------------|------------|-5-7---7-(7)----|-5-7---7-(7)------5\-o||
||--3--3-------5-|-(5)--------|-----0----------|-----0--------5h7-----||

 Outro
  Q  Q  Q  E E   Q  Q  +H       +W           W
|--------------|--------------|------------|------*|
|--------------|--------------|------------|------*|
|--------------|--------------|------------|------*|
|-3--3-------5-|----0--(0)----|-(0)--------|------*|
Добавлено: 04.10.2015
Другие материалы по этой песне:
  • Аккорды и текст

Страница создана 27.02.2012
http://primanota.ru/styx/after-you-leave-me-chords.htm
Привет, Гость.
Предлагаем пройти революционный курс по гитаре.
Подарок от PrimaNota.Ru, забирай!