PrimaNota.ru - самый крупный в мире бесплатный архив песенных текстов, аккордов, табулатур и нот


Styx - A Song For Suzanne - текст песни, бас-таба, видео

Регистрация Запомнить меня
Войти через:  Facebook Google Twitter Vk Yandex Mail.ru

Styx - A Song For Suzanne - текст песни, бас-таба, видео

Печатать
Просмотров: 108
Уроки эстрадного вокала в Санкт-Петербурге
Авторы музыки: Dennis DeYoung

Styx A Song for Suzanne 

standard tuning

1:00 x4
G|-----------------------------------|
D|-----------------------------------|
A|----7-7-----5-5----4-4--3-2-0------|
E|-0-------0-------0------------3--2-|

1:31
G|-----------------------------------------------|
D|-----------------------------------------------|
A|------7----7-5----7----7-5----7----5----4----2-|
E|-0---------------------------------------------|

2:10
G|----------------------------------------------------|
D|-------------------------------------------9----9---|
A|-7-----5-7----5--3--2--0----7---------9--9----9---9-|
E|---------------------------------7--7---------------|

2:32
G|-----------------------------------------|
D|------5--5---------------7--------7--5---|
A|-3--3------3--2-2--7--5-----7--5-------7-|
E|-----------------------------------------|

2:46
G|---------------------------------------------------|
D|------------------------------------------9----9---|
A|-12109-57----5--3--2--0----7---------9--9----9---9-|
E|--------------------------------7--7---------------|

3:04
G|----------------------------------------------|
D|------5--5------------------------------------|
A|-3--3------3--2-2--7--7-5-7-5--10-9--7-7-75---|
E|--------------------------------------------7-|

3:16
G|-------------------------------------------|
D|--------------------------7--------------7-|
A|-7--7-5-7-5--10-9--10--9----------10--9----|
E|-----------------------------7-------------|

3:27 
G|-------------------------------------------------------------------------|
D|-------------------------------------------------------------------------|
A|-77777777-77777777-77777777-77777777-77777777-77777777-77777777-77777777-|
E|-------------------------------------------------------------------------|

3:43
G|--------------------------------------------------------------------------|
D|------------------------------------------------------1010101010101010-10-|
A|-77777777-55555555-55555555-99999999-1010101010101010---------------------|
E|--------------------------------------------------------------------------|

3:56
G|---------------------------------------------------------------|
D|---------------------------------------------------------------|
A|-7-------7--------55--7-------7--------55--7-------7--------22-|
E|----7-5-----7-5-3--------7-5-----7-5-3--------7-5-----7-5-3----|

4:18
G|------------------------------------------------------------------------|
D|-------7--------7--5-------------------------------------------9----9---|
A|-7--5-----7--5-------7----5--7----5--3--2--0----7---------9--9----9---9-|
E|-----------------------------------------------------7--7---------------|

4:45
G|----------------------------------------------|
D|------5--5------------------------------------|
A|-3--3------3--2-2--7--7-5-7-5--10-9--7-7-75---|
E|--------------------------------------------7-|

4:57
G|----------------------------------------------|
D|--------------------------7--------------7----|
A|-7--7-5-7-5--10-9--10--9----------10--9-----7-|
E|-----------------------------7----------------|
Добавлено: 01.07.2013
Другие материалы по этой песне:
  • Аккорды и текст

Страница создана 22.07.2012
http://primanota.ru/styx/a-song-for-suzanne-chords.htm
Привет, Гость.
Предлагаем пройти революционный курс по гитаре.
Подарок от PrimaNota.Ru, забирай!