PrimaNota.ru - самый крупный в мире бесплатный архив песенных текстов, аккордов, табулатур и нот


Steel Panther - Fat Girl Thar She Blows - таба, видео

Регистрация Запомнить меня
Войти через:  Facebook Google Twitter Vk Yandex Mail.ru

Steel Panther - Fat Girl Thar She Blows - таба, видео

Печатать
Просмотров: 231
Авторы музыки: Steel Panther
Авторы текста: Steel Panther
Artist: Steel Panther
Song: Fat Girl
Album: Feel The Steel
Tabbed by: Harry Lawrenkay

Tuning is half a step down

Intro:

Eb|---------------------------------------|
Bb|---------------------------------------|
Gb|---------------------------------------|
Db|-----5-----5~-------5-----5-----5s7-7~-|
Ab|-0h3-3-0h3-3~---0h3-3-0h3-3-0h3-3s5-5~-|
Eb|---------------------------------------|

Eb|---------------------------------------------|
Bb|-13h15p13p12-13-15---------------------------|
Gb|-------------------14~-12h14p12p11-12-14-----|
Db|-----------------------------------------12~-|
Ab|---------------------------------------------|
Eb|---------------------------------------------|

Eb|------------------------------------------12-14-15s17------------15h17-17b--|
Bb|-------------12-13-15------------12h13h15-------------17~---15h17-----------|
Gb|-------12h14----------14~---12h14-------------------------------------------|
Db|-12h14----------------------------------------------------------------------|
Ab|----------------------------------------------------------------------------|
Eb|----------------------------------------------------------------------------|


Verse:

All palm muted except for the pinch harmonic on the 5th fret of the e string

Eb|--------------------------------------------------------------------|
Bb|--------------------------------------------------------------------|
Gb|--------------------------------------------------------------------|
Db|--------------------------------------------------------------------|
Ab|-5-5-5-5-5-5-5-5-5-5-5-5-5-5-55----5-5-5-5-5-5-5-5-5-5-5-5-5-5------|
Eb|-3-3-3-3-3-3-3-3-3-3-3-3-3-3-33-5*-3-3-3-3-3-3-3-3-3-3-3-3-3-3-3-2--|


Eb|-----------------------------------------------------------------|
Bb|-----------------------------------------------------------------|
Gb|-----------------------------------------------------------------|
Db|---------------------------------5-5-5-5-5-5-5-5-7-7-7-7-7-7-7-7-|
Ab|2-2-2-2-2-2-2-2-2-2-2-2-2-2-2-2--3-3-3-3-3-3-3-3-5-5-5-5-5-5-5-5-|
Eb|0-0-0-0-0-0-0-0-0-0-0-0-0-0-0-0----------------------------------|


Pre Chorus:

Eb|---------------|
Bb|-3-3--3-3--3---|
Gb|-0-0--0-0--2---|
Db|-0-0--2-2--0---|
Ab|-2-2--3-3--0---|
Eb|-3-3-----------|


Chorus:

Eb|---------------|
Bb|-1---3---1---3-|
Gb|-0---2---0---2-|
Db|-2---0---2---0-|
Ab|-3---0---3---0-|
Eb|---------------|


Post Chorus:

Eb|-----------------|
Bb|-3-3--3-3--3-----|
Gb|-0-0--0-0--2-----|
Db|-0-0--2-2--0---5-|
Ab|-2-2--3-3--0---5-|
Eb|-3-3-----------3-|


Pre Solo:

Eb|-----------------------------------------|
Bb|-----------------------------------------|
Gb|-----------------------------------------|
Db|-----7-----7~-------7-----7-----7s9-9-9--|
Ab|-0h5-5-0h5-5~---0h5-5-0h5-5-0h5-5s7-7-7--|
Eb|-----------------------------------------|


Solo:

Eb|-----------------------------------------------------|
Bb|-----------------------------------------------------|
Gb|--------16s18-16-14-16----------14br14p13-14p13s9----|
Db|------14----------------------14---------------------|
Ab|-12-16-------------------12-16-----------------------|
Eb|-----------------------------------------------------|


Eb|-------------------------------14-----17-16------------|
Bb|-----10h12-12b-15t-12b-19t-17b---17p14-----17b-19~-----|
Gb|-9h11--------------------------------------------------|
Db|-------------------------------------------------------|
Ab|-------------------------------------------------------|
Eb|-------------------------------------------------------|


Eb|-14-----16-14-----17-14-----16-14-----17p14h16h17p16p14------------------|
Bb|---17p14-----17p14-----17p14-----17p14-----------------17p14h15h17p15p14-|
Gb|-------------------------------------------------------------------------|
Db|-------------------------------------------------------------------------|
Ab|-------------------------------------------------------------------------|
Eb|-------------------------------------------------------------------------|


Eb|-------------------|
Bb|-------------------|
Gb|-16p13h14h16p14----|
Db|---------------14~-|
Ab|-------------------|
Eb|-------------------|


Eb|---------------------141617141617161719171921171921192122b--|
Bb|---------141516141516---------------------------------------|
Gb|---131416---------------------------------------------------|
Db|-14---------------------------------------------------------|
Ab|------------------------------------------------------------|
Eb|------------------------------------------------------------|


Eb|-17-16-17-14-17--17--17--17p16------|
Bb|---------------17--15--14-----17----|
Gb|--------------------------------16~-|
Db|------------------------------------|
Ab|------------------------------------|
Eb|------------------------------------|


Verse after solo (no guitar):

My friends keep telling me, I must be goin' blind,
'Cause you got cottage cheese, all over over your behind yeah!
Even though some people point and laugh at us!
You can kick their ass because you're bigger than a bus!!


Higher Chorus:

Eb|------------|
Bb|------------|
Gb|------------|
Db|-7--9--7--9-|
Ab|-5--7--5--7-|
Eb|------------|


Higher pre chorus:

Eb|--------------|
Bb|--------------|
Gb|--------------|
Db|------7-7--9~-|
Ab|-7-7--5-5--7~-|
Eb|-5-5----------|


I dont know the outro solo sorry :(

Song Order

Intro x 1
Verse x 2
Pre chorus x 2
Chorus x 1
Post Chorus x 1
Verse x 1
Pre Chorus x 2
Chorus x 1
Pre Solo x 1
Solo!!
No guitar here bit
Higher chorus x 1
Higher pre chorus x 1
Higher chorus x1
Higher pre chorus x 2
Outro solo with fade out

Done!
Steel Panther rules!!!!!
Добавлено: 23.06.2014
Другие материалы по этой песне:

Страница создана 24.08.2013
http://primanota.ru/steel-panther/fat-girl-thar-she-blows-chords.htm
Привет, Гость.
Предлагаем пройти революционный курс по гитаре.
Подарок от PrimaNota.Ru, забирай!