PrimaNota.ru - самый крупный в мире бесплатный архив песенных текстов, аккордов, табулатур и нот


Steel Panther - Party Like Its The End Of The World - бас-таба, видео

Регистрация Запомнить меня
Войти через:  Facebook Google Twitter Vk Yandex Mail.ru

Steel Panther - Party Like Its The End Of The World - бас-таба, видео

Печатать
Просмотров: 215
Уроки эстрадного вокала в Санкт-Петербурге
0:03 Intro
Gb|-------------------------------------------------------------------------|
Db|o------------------------------------------------------------5----------o|
Ab|o--------------------0-1-2-----------2---------2-4-0---0---0---4-6-7----o|
Eb|-----0---------------------0---0---0-------------------------------------|x4
        1 + 2 + 3 + 4 + 1 + 2 + 3 + 4 + 1 + 2 + 3 + 4 + 1 + 2 + 3 + 4 +

0:32 Pre-Chorus
Gb|-----------------------------------------------------------------|
Db|-4---4---4---4---4---4---4---4---2---2---2---2---2---2---2---2---|
Ab|---2---2---2---2---2---2---2---2---0---0---0---0---0---0---0---0-|
Eb|-----------------------------------------------------------------|
    1 + 2 + 3 + 4 + 1 + 2 + 3 + 4 + 1 + 2 + 3 + 4 + 1 + 2 + 3 + 4 +

Gb|-----------------------------------------------------------------|
Db|-----------------------------------------------------------------|
Ab|-3-0-3-0-3-0-3-0-3-0-3-0-3-0-3-0-4-0-4-0-4-0-4-0-4-0-4-0-4-0-4-0-|
Eb|-----------------------------------------------------------------|
    1 + 2 + 3 + 4 + 1 + 2 + 3 + 4 + 1 + 2 + 3 + 4 + 1 + 2 + 3 + 4 +


0:46 Chorus
Gb|-----------------------------------------------------------------|
Db|-----------------------------------------------------------------|
Ab|---------0-------2---2-----------2-2-2-2-2-0-0-0-0-1-2-----------| 
Eb|-0-----------------------0-----------------------------0---------|
    1 + 2 + 3 + 4 + 1 + 2 + 3 + 4 + 1 + 2 + 3 + 4 + 1 + 2 + 3 + 4 +

Gb|-----------------------------------------------------------------|
Db|-----------------------------------2-----------------------------|
Ab|---------0-------2---2-----------4---4-2-4-2-5-0-----------------|
Eb|-0-----------------------0---------------------------------------|
    1 + 2 + 3 + 4 + 1 + 2 + 3 + 4 + 1 + 2 + 3 + 4 + 1 + 2 + 3 + 4 +

Gb|---------------------------------|
Db|---------------------------------|
Ab|-----------------7-7-4-0---------|
Eb|-0-------0-----------------------|
    1 + 2 + 3 + 4 + 1 + 2 + 3 + 4 +

1:04 Verse
Gb|-------------------------------------------------------------------------|
Db|o------------------------------------------------------------5----------o|
Ab|o--------------------0-1-2-----------2---------2-4-0---0---0---4-6-7----o|
Eb|-----0---------------------0---0---0-------------------------------------|x4
        1 + 2 + 3 + 4 + 1 + 2 + 3 + 4 + 1 + 2 + 3 + 4 + 1 + 2 + 3 + 4 +

1:32 Pre-Chorus
Gb|-----------------------------------------------------------------|
Db|-4---4---4---4---4---4---4---4---2---2---2---2---2---2---2---2---|
Ab|---2---2---2---2---2---2---2---2---0---0---0---0---0---0---0---0-|
Eb|-----------------------------------------------------------------|
    1 + 2 + 3 + 4 + 1 + 2 + 3 + 4 + 1 + 2 + 3 + 4 + 1 + 2 + 3 + 4 +

Gb|-----------------------------------------------------------------|
Db|-----------------------------------------------------------------|
Ab|-3-0-3-0-3-0-3-0-3-0-3-0-3-0-3-0-4-0-4-0-4-0-4-0-4-0-4-0-4-0-4-0-|
Eb|-----------------------------------------------------------------|
    1 + 2 + 3 + 4 + 1 + 2 + 3 + 4 + 1 + 2 + 3 + 4 + 1 + 2 + 3 + 4 +

1:47 Chorus
Gb|-----------------------------------------------------------------|
Db|-----------------------------------------------------------------|
Ab|---------0-------2---2-----------2-2-2-2-2-0-0-0-0-1-2-----------| 
Eb|-0-----------------------0-----------------------------0---------|
    1 + 2 + 3 + 4 + 1 + 2 + 3 + 4 + 1 + 2 + 3 + 4 + 1 + 2 + 3 + 4 +

Gb|-----------------------------------------------------------------|
Db|-----------------------------------------------------------------|
Ab|---------0-------2---2-----------4-4-4-4-4-4-4-4-4-4-4-4-4-4-4-4-|
Eb|-0-----------------------0---------------------------------------|
    1 + 2 + 3 + 4 + 1 + 2 + 3 + 4 + 1 + 2 + 3 + 4 + 1 + 2 + 3 + 4 +

Gb|---------------------------------|
Db|---------------------------------|
Ab|-4-4-4-4-4-4-4---5-5-5-5-5-5-5-5-|
Eb|---------------------------------|
    1 + 2 + 3 + 4 + 1 + 2 + 3 + 4 +

2:05 Solo
Gb|-------------------------------------------------------------------------|
Db|o-----------------------------------------------------------------------o|
Ab|o------------------------0-----------2-2-2-2-2-2-2-0--4-3-2-0-2-4-------o|
Eb|-----2-------2-------0-2---2---2-2-2-------------------------------------|x4
        1 + 2 + 3 + 4 + 1 + 2 + 3 + 4 + 1 + 2 + 3 + 4 + 1 + 2 + 3 + 4 + 

2:33 Bridge
Gb|-----------------------------------------------------------------|
Db|-----------------------------------------------------------------|
Ab|-2-2-2-2-2-2-2-2-----------------2-2-2-2-2-2-2-2-----------------|
Eb|-----------------3-3-3-3-3-3-3-3-----------------3-3-3-3-3-3-3-3-|
    1 + 2 + 3 + 4 + 1 + 2 + 3 + 4 + 1 + 2 + 3 + 4 + 1 + 2 + 3 + 4 + 

Gb|-----------------------------------------------------------------|
Db|-----------------------------------------------------------------|
Ab|-2-2-2-2-2-2-2-2-----------------3-3-3-3-3-3-3-3-5-5-5-5-5-5-5-5-|
Eb|-----------------3-3-3-3-3-3-3-3---------------------------------|
    1 + 2 + 3 + 4 + 1 + 2 + 3 + 4 + 1 + 2 + 3 + 4 + 1 + 2 + 3 + 4 + 

Gb|-----------------------------------------------------------------|
Db|-----------------------------------------------------------------|
Ab|-----------------------------------------------------------------|
Eb|-0-0-0-0-0-0-0-0-0-0-0-0-0---------------------------------------|
    1 + 2 + 3 + 4 + 1 + 2 + 3 + 4 + 1 + 2 + 3 + 4 + 1 + 2 + 3 + 4 + 

3:05
Gb|---|
Db|---|
Ab|---|
Eb|-0-|

3:23 Chorus
Gb|-----------------------------------------------------------------|
Db|-----------------------------------------------------------------|
Ab|-----------------0---0-----------2-2-2-2-2-0-0-0-0-1-2-----------| 
Eb|-0-----------------------0-----------------------------0---------|
    1 + 2 + 3 + 4 + 1 + 2 + 3 + 4 + 1 + 2 + 3 + 4 + 1 + 2 + 3 + 4 +

Gb|-----------------------------------------------------------------|
Db|-----------------------------------------------------------------|
Ab|---------0-------2---2-----------2-2-2-2-2-0-0-0-0-1-2-----------| 
Eb|-0-----------------------0-----------------------------0---------|
    1 + 2 + 3 + 4 + 1 + 2 + 3 + 4 + 1 + 2 + 3 + 4 + 1 + 2 + 3 + 4 +

3:37 Chorus
Gb|-----------------------------------------------------------------|
Db|-----------------------------------------------------------------|
Ab|---------0-------2---2-----------2-2-2-2-2-0-0-0-0-1-2-----------| 
Eb|-0-----------------------0-----------------------------0---------|
    1 + 2 + 3 + 4 + 1 + 2 + 3 + 4 + 1 + 2 + 3 + 4 + 1 + 2 + 3 + 4 +

Gb|-----------------------------------------------------------------|
Db|-----------------------------------------------------------------|
Ab|---------0-------2---2-----------4-4-4-4---------2-2-2-2---------|
Eb|-0-----------------------0---------------2-2-2-2---------0-0-0-0-|
    1 + 2 + 3 + 4 + 1 + 2 + 3 + 4 + 1 + 2 + 3 + 4 + 1 + 2 + 3 + 4 +

3:51 Outro
Gb|-----------------------------------------------------------------|
Db|---2-------------------------------------------------------------|
Ab|-4---4-2-4-2-5-0---------------------------------0---0-----------|
Eb|---------------------------------0-------0---------------0-0-----|
    1 + 2 + 3 + 4 + 1 + 2 + 3 + 4 + 1 + 2 + 3 + 4 + 1 + 2 + 3 + 4 + 

Tabbed By Jack Mills
Добавлено: 22.01.2014
Другие материалы по этой песне:
  • Аккорды и текст

Страница создана 22.01.2014
http://primanota.ru/steel-panther/party-like-its-the-end-of-the-world-chords.htm
Привет, Гость.
Предлагаем пройти революционный курс по гитаре.
Подарок от PrimaNota.Ru, забирай!