PrimaNota.ru - самый крупный в мире бесплатный архив песенных текстов, аккордов, табулатур и нот


Steel Panther - Party Like Tomorrow Is The End Of The World - таба, видео

Регистрация Запомнить меня
Войти через:  Facebook Google Twitter Vk Yandex Mail.ru

Steel Panther - Party Like Tomorrow Is The End Of The World - таба, видео

Печатать
Просмотров: 277
Авторы музыки: Steel Panther
Авторы текста: Steel Panther
-------------------------------------------------------------------------------

PARTY LIKE TOMORROW IS THE END OF THE WORLD - Steel Panther

-------------------------------------------------------------------------------
Tabbed by: Guytarist38

Legend
L - tied note
x - dead note
h - hammer on/pull off
b - bend
s - slide
~ - vibrato
g - ghost note
> - accentuated note
t - trill
M - palm mute
. - staccato
P - popping (bass)
S - slapping (bass)
+ - tapping
W - wide vibrato
< - fade in
w - whammy bar
= - tremolo picking
v - brush up
^ - brush down
V - pick stroke up
n - pick stroke down


VERSE : 

D#|------------|----------------------------|------------------------|----------------------------|
A#|------------|----------------------------|------------------------|----------------------------|
F#|------------|-----------------------4----|--4---------------------|----------------------------|
C#|--2---------|-----------2-----2-----4----|--4----------4--6--2----|-----2-----2--4-----1--2----|
G#|--2---------|--0--1--2--2-----2-----2----|--2----------2--4--0----|-----0-----0-----2----------|
D#|--0---------|-----------0-----0----------|------------------------|----------------------------|



D#|------------|----------------------------|------------------------|----------------------------|
A#|------------|----------------------------|------------------------|----------------------------|
F#|------------|-----------------------4----|--4---------------------|----------------------------|
C#|--2---------|-----------2-----2-----4----|--4----------4--6-------|----------------------------|
G#|--2---------|--0--1--2--2-----2-----2----|--2----------2--4--7----|-7---6s7-7---6s7-7----------|
D#|--0---------|-----------0-----0----------|-------------------5----|-5---4s5-5---4s5-5---4--2---|






BRIDGE : 

        
        Gtr 1 : 


        D#|----------------------------|----------------------------|
        A#|----------------------------|----------------------------|
        F#|----------------------------|----------------------------|
        C#|--4-----2-----4-----2-------|--4-----2-----4-----2-------|
        G#|----------------------------|----------------------------|  
        D#|----------------------------|----------------------------|    X 3 

        D#|-------|----------------------------|
        A#|-------|----------------------------|
        F#|--6----|--2--2--2--2--2--2--2--2----|
        C#|--6----|--2--2--2--2--2--2--2--2----|
        G#|--4----|--0--0--0--0--0--0--0--0----|
        D#|-------|----------------------------|


        Gtr 2 :


        D#|-------|-------|-------|-------|-------|-------|-------|-------|
        A#|-------|-------|-------|-------|-------|-------|-------|-------|
        F#|--4----|--4----|--3----|--3----|--5----|--5----|--6----|--2----|
        C#|--4----|--4----|--4----|--4----|--5----|--5----|--6----|--2----|
        G#|--2----|--2----|--1----|--1----|--3----|--3----|--4----|--0----|
        D#|-------|-------|-------|-------|-------|-------|-------|-------|






CHORUS 1 :


D#|----------------|-----------------|----------------------------|----------------|
A#|----------------|-----------------|----------------------------|----------------|
F#|--------2-------|--4--4-----------|--4--4--4--4--2--2--2--2----|----------------|
C#|--2-----2-------|--4--4-----2-----|--4--4--4--4--2--2--2--2----|-----------2----|
G#|--2-----0-------|--2--2-----2-----|--2--2--2--2--0--0--0--0----|-----0--2--2----|
D#|--0-------------|-----------0-----|----------------------------|--4--------0----|


D#|----------------|-----------------|----------------------------|-------|
A#|----------------|-----------------|----------------------------|-------|
F#|--------2-------|--4--4-----------|----------------------------|-------|
C#|--2-----2-------|--4--4-----2-----|-----2--2-----------2--2----|--2----|
G#|--2-----0-------|--2--2-----2-----|--4--------4--2--4-----0----|--0----|
D#|--0-------------|-----------0-----|----------------------------|-------|





BREAK : 

D#|---------|----------------------------|
A#|---------|--3--3----------------------|
F#|---------|--2--2--------2-------------|
C#|--2---2--|--0--0--------2-------------|
G#|--2---2--|--------3b4---0-------------|
D#|--0---0--|----------------------------|





VERSE : 

D#|------------|----------------------------|------------------------|----------------------------|
A#|------------|----------------------------|------------------------|----------------------------|
F#|------------|-----------------------4----|--4---------------------|----------------------------|
C#|--2---------|-----------2-----2-----4----|--4----------4--6--2----|-----2-----2--4-----1--2----|
G#|--2---------|--0--1--2--2-----2-----2----|--2----------2--4--0----|-----0-----0-----2----------|
D#|--0---------|-----------0-----0----------|------------------------|----------------------------|


D#|------------|----------------------------|------------------------|----------------------------|
A#|------------|----------------------------|------------------------|----------------------------|
F#|------------|-----------------------4----|--4---------------------|----------------------------|
C#|--2---------|-----------2-----2-----4----|--4----------4--6-------|----------------------------|
G#|--2---------|--0--1--2--2-----2-----2----|--2----------2--4--7----|-7---6s7-7---6s7-7----------|
D#|--0---------|-----------0-----0----------|-------------------5----|-5---4s5-5---4s5-5---4--2---|






CHORUS 2 :


D#|----------------|-----------------|----------------------------|----------------|
A#|----------------|-----------------|----------------------------|----------------|
F#|--------2-------|--4--4-----------|--4--4--4--4--2--2--2--2----|----------------|
C#|--2-----2-------|--4--4-----2-----|--4--4--4--4--2--2--2--2----|-----------2----|
G#|--2-----0-------|--2--2-----2-----|--2--2--2--2--0--0--0--0----|-----0--2--2----|
D#|--0-------------|-----------0-----|----------------------------|--4--------0----|


D#|----------------|-----------------|
A#|----------------|-----------------|
F#|--------2-------|--4--4-----------|
C#|--2-----2-------|--4--4-----2-----|
G#|--2-----0-------|--2--2-----2-----|
D#|--0-------------|-----------0-----|


D#|----------------------------|-------|----------------------------|-------|
A#|----------------------------|-------|----------------------------|-------|
F#|--6--6--6--6--6--6--6--4----|--4----|--6--6--6--6--6--6--6--7----|--7----|
C#|--6--6--6--6--6--6--6--6----|--6----|--6--6--6--6--6--6--6--7----|--7----|
G#|--4--4--4--4--4--4--4--4----|--4----|--4--4--4--4--4--4--4--5----|--5----|
D#|----------------------------|-------|----------------------------|-------|






SOLO : 

        
        Rythm Gtr : 

        D#|----------------|----------------------------|------------|----------------------------|
        A#|----------------|----------------------------|------------|----------------------------|
        F#|----------------|----------------------------|--4-------2-|----------------------------|
        C#|--4-----4-------|-----------4----------------|--4-------2-|----------------------------|
        G#|--4-----4-------|-----------4----------------|--2-------0-|--0--4--3--2--0--2--3--4----|
        D#|--2-----2-------|--0--2--5--2--------0--2----|------------|----------------------------|X3


        D#|----------------|----------------------------|------------|----------------------------|
        A#|----------------|----------------------------|------------|----------------------------|
        F#|----------------|----------------------------|--4-------2-|--2-------------------------|
        C#|--4-----4-------|-----------4----------------|--4-------2-|--2-------------------------|
        G#|--4-----4-------|-----------4----------------|--2-------0-|--0-------------------------|
        D#|--2-----2-------|--0--2--5--2--------0--2----|------------|----------------------------|




        Solo Gtr :

                       ________    ________
                      |   3    |  |   3    |   
        D#|-------------------------------------|----------------------------------|
        A#|-------------------------------------|----------------------------------|
        F#|--4b6------4b6-4b6-4b6-4b5-4b5-4b5---|--4b6rb4--2-----------------------|
        C#|-------------------------------------|------------------------------2---|
        G#|-------------------------------------|--------------4-3-2-------2-4---4-|
        D#|-------------------------------------|----------------------------------|



        D#|-------------------2-----2-------------|---------------4b6L---|
        A#|---------------------2-5---5-2---2-----|--5------5--7---------|
        F#|-2---4-2-4b6-------------------4--/6L--|-(6)------------------|
        C#|---------------------------------------|----------------------|
        G#|---------------------------------------|----------------------|
        D#|---------------------------------------|----------------------|



        D#|--(6)rb4-------4h-5h-4--------------------------|----------------------------------|
        A#|------------------------5----7----4-------------|--4b5rb4--------------------------|
        F#|---------------------------------------4--------|---------4-----------------9--11--|
        C#|--------------------------------------------7---|-----------7---------11s----------|
        G#|------------------------------------------------|----------------------------------|
        D#|------------------------------------------------|----------------------------------|


        D#|------------9----------------9-12-9-11----9------------------------|
        A#|--10--12b14---12b14----10-12-----------12---12b13rb12-10----10-12L-|
        F#|---------------------------------------------------------11--------|
        C#|-------------------------------------------------------------------|
        G#|-------------------------------------------------------------------|
        D#|-------------------------------------------------------------------|


        D#|----------------14----14-17-14-17-14----------14----|
        A#|--(12)b14---17-----17----------------17-14-17----17-|
        F#|----------------------------------------------------|
        C#|----------------------------------------------------|
        G#|----------------------------------------------------|
        D#|----------------------------------------------------|
        


        D#|-14-17-14-17-14----------14-19-14-------17b19------14--|
        A#|----------------17-14-17----------17-14----------------|
        F#|-------------------------------------------------------|
        C#|-------------------------------------------------------|
        G#|-------------------------------------------------------|
        D#|-------------------------------------------------------|


        D#|---------14--------------------------------|
        A#|--17b19------14--17b19---------17-14-------|
        F#|-------------------------------------16b18-|
        C#|-------------------------------------------|
        G#|-------------------------------------------|
        D#|-------------------------------------------|




        D#|-------------------------------------------------------------------14-|
        A#|-14-17-14-------14-17-------14-17-------14-17-------14-17----14-17----|
        F#|----------16b19-------16b19-------16b19-------16b19-------16----------|
        C#|----------------------------------------------------------------------|
        G#|----------------------------------------------------------------------|
        D#|----------------------------------------------------------------------|



        D#|-------14-17-14-17-14----14-------14---------------|
        A#|-14-17----------------17----14-17----17b21L--------|
        F#|---------------------------------------------------|
        C#|---------------------------------------------------|
        G#|---------------------------------------------------|
        D#|---------------------------------------------------|



        D#|----------------5-----4-----5-----4-----5-----4-----5-----4-----|
        A#|-(21)rb17---6h7---5h6---6h7---5h6---6h7---5h6---6h7---5h6---6h7-|
        F#|----------------------------------------------------------------|
        C#|----------------------------------------------------------------|
        G#|----------------------------------------------------------------|
        D#|----------------------------------------------------------------|


        D#|-5-----4-----5-----------|---------------------------------|--------|
        A#|---5h6---6h7---7---8b10--|--(10)---------------------------|--------|
        F#|-------------------------|-------5---4-2-----------2-4s6L--|-(6)b9--|
        C#|-------------------------|---------------5-4-3-2-4---------|--------|
        G#|-------------------------|---------------------------------|--------|
        D#|-------------------------|---------------------------------|--------|





BRIDGE : 


D#|----------------------------|----------------------------|
A#|----------------------------|----------------------------|
F#|----------------------------|----------------------------|
C#|--4--4--4--4--4--4--4-------|----------------------------|
G#|--2--2--2--2--2--2--2--5L---|--5--5--5--5--5--5--5--5----|
D#|-----------------------3L---|--3--3--3--3--3--3--3--3----|  x 3


D#|----------------------------|----------------------------|
A#|----------------------------|----------------------------|
F#|----------------------------|----------------------------|
C#|--5--5--5--5--5--5--5--7L---|--7--7--7--7--7--7--7--7----|
G#|--3--3--3--3--3--3--3--5L---|--5--5--5--5--5--5--5--5----|
D#|----------------------------|----------------------------|


D#|----------------------------|-------|
A#|----------------------------|-------|
F#|----------------------------|-------|
C#|--9--9--9--9--9--9--9--9----|--9----|
G#|--7--7--7--7--7--7--7--7----|--7----|
D#|----------------------------|-------|





CHORUS 3 :


D#||--0--0--0--0--0--0--0--0--|--0--0--0--0--0--0--0--0--|
A#||--5--5--5--5--5--5--5--5--|--5--5--5--5--5--5--5--5--|
F#||--------------------------|--------------------------|
C#||--------------------------|--------------------------|
G#||--------------------------|--------------------------|
D#||--------------------------|--------------------------|


D#|--0--0--0--0--0--0--0--0--|--0--0--0--0--0--0--0--0--||
A#|--4--4--4--4--4--4--4--4--|--2--2--2--2--2--2--2--2--||
F#|--------------------------|--------------------------||
C#|--------------------------|--------------------------||
G#|--------------------------|--------------------------||
D#|--------------------------|--------------------------||  x 3 



D#|--0--0--0--0--0--0--0--0--|--0--0--0--0--0--0--0--0--|
A#|--4--4--4--4--4--4--4--4--|--2--2--2--2--2--2--2--2--|
F#|--------------------------|--------------------------|
C#|--------------------------|--------------------------|
G#|--------------------------|--------------------------|
D#|--------------------------|--------------------------| 



D#||--0--0--0--0--0--0--0--0--||
A#||--4--4--4--4--4--4--4--4--||
F#||--------------------------||
C#||--------------------------||
G#||--------------------------||
D#||--------------------------|| x 4 



D#|----------------|-----------------|----------------------------|----------------|
A#|----------------|-----------------|----------------------------|----------------|
F#|----------------|-----2-----------|--4--4--4--4--2--2--2--2----|----------------|
C#|--2-------------|--2--2-----2-----|--4--4--4--4--2--2--2--2----|-----------2----|
G#|--2-------------|--2--0-----2-----|--2--2--2--2--0--0--0--0----|-----0--2--2----|
D#|--0-------------|--0--------0-----|----------------------------|--4--------0----|


D#||----------------|-----------------|----------------------------|----------------||
A#||----------------|-----------------|----------------------------|----------------||
F#||--------2-------|--4--4-----------|--4--4--4--4--2--2--2--2----|----------------||
C#||--2-----2-------|--4--4-----2-----|--4--4--4--4--2--2--2--2----|-----------2----||
G#||--2-----0-------|--2--2-----2-----|--2--2--2--2--0--0--0--0----|-----0--2--2----||
D#|---0-------------|-----------0-----|----------------------------|--4--------0----|| x 2



D#|----------------|-----------------|---------------|------------------|
A#|----------------|-----------------|---------------|------------------|
F#|--------2-------|--4--4-----------|--6------9-----|----4---4---------|
C#|--2-----2-------|--4--4-----2-----|--6------9-----|----4---4-----2---|
G#|--2-----0-------|--2--2-----2-----|--4------7-----|----2---2-----2---|
D#|--0-------------|-----------0-----|---------7-----|--------------0---|


D#|---------------------------|-------|------------|-----------------------||
A#|---------------------------|-------|------------|-----------------------||
F#|---------------------------|-------|------------|--2--2-----------------||
C#|-----2--2-----------2--2L--|--(2)--|--2----2----|--2--2------2----------||
G#|--4--------4--2--4-----0L--|--(0)--|--2----2----|--0--0------2----------||
D#|---------------------------|-------|--0----0----|--------3b4-0----------||
Добавлено: 03.01.2014
Другие материалы по этой песне:

Страница создана 03.09.2013
http://primanota.ru/steel-panther/party-like-tomorrow-is-the-end-of-the-world-chords.htm
Привет, Гость.
Предлагаем пройти революционный курс по гитаре.
Подарок от PrimaNota.Ru, забирай!