PrimaNota.ru - самый крупный в мире бесплатный архив песенных текстов, аккордов, табулатур и нот


Steel Panther - Glory Hole - таба, бас-таба, видео

Регистрация Запомнить меня
Войти через:  Facebook Google Twitter Vk Yandex Mail.ru

Steel Panther - Glory Hole - таба, бас-таба, видео

Печатать
Просмотров: 415
Авторы музыки: Steel Panther
Авторы текста: Steel Panther
Steel Panther
Glory Hole
Album: All You Can Eat

Strumming
D = Down
U = Up

Awesome song by Steel Panther, This is my first tab so if there is any issues with it let me know. Matt

Tuning: (low to high) Db Ab Db Gb Bb Eb

Intro:
E|------------------------------------------------------------------------------------------------|
B|------------------------------------------------------------------------------------------------|
G|------------------------------------------------------------------------------------------------|
D|--5p3p0-----------------5p3p0------------------5p3p0--------------------------------3p0-5p0-6p0-|
A|-----------3p0--------------------3p0------------------3p0---------3p0-5p0-6p0-7p0--------------|
E|-----------------5p3p0-----------------0h3------------------5p3p0-------------------------------|

E|----------------------------------------------------------------------------------|
B|----------------------------------------------------------------------------------|
G|----------------------------------------------------------------------3-4-5-6-----|
D|--5p3p0-----------------5p3p0------------------5p3p0------------------3-4-5-6-----|
A|-----------3p0--------------------3p0------------------3p0------------1-2-3-4-----|
E|-----------------5p3p0-----------------0h3------------------5p3p0-----------------| x2

Verse
E|-----------------------------------------------------------------------------------------------|
B|-----------------------------------------------------------------------------------------------|
G|-----------------------------------------------------------------------------------------------|
D|----------------------------------------------------------5p3p0-------------5p3p0--------------|
A|----------------------------------------------------------------3p0----------------3p0---------|
E|--00-00-00-00-00-00-00-00-00-00-00-00-00-00-00-00-00-00-------------5p3p0----------------0h3b--|
    DU DU DU DU DU DU DU DU DU DU DU DU DU DU DU DU DU DU


E|-----------------------------------------------------------------------------------------------|
B|-----------------------------------------------------------------------------------------------|
G|-----------------------------------------------------------------------------------------------|
D|--------------------------88-88-88-88-88-88-88-88-88-88----5p3p0---------------5p3p0-----------|
A|--------------------------88-88-88-88-88-88-88-88-88-88-----------3p0----------------3p0-------|
E|--00-00-00-00-00-00-00-00-88-88-88-88-88-88-88-88-88-88----------------5p3p0--------------0h3b-|
    DU DU DU DU DU DU DU DU DU DU DU DU DU DU DU DU DU DU

E|--------------------------------------------|
B|--------------------------------------------|
G|---5-5-5-5-5-5-5-5---7-5-7-10---7-5-7-10----|
D|---5-5-5-5-5-5-5-5---7-5-7-10---7-5-7-10----|
A|---3-3-3-3-3-3-3-3---5-3-5-8----5-3-5-8-----|
E|--------------------------------------------|  x2

Chrous
Chords: D, G, C, A

D chord
E|----2-----|
B|-------3--|
G|---2------|
D|----------|
A|----------|
E|----------|

G chord
E|-----------|
B|-----------|
G|-----------|
D|---3-------|
A|---3-------|
E|---3-------|

C Chord
E|-----------|
B|-----------|
G|----5------|
D|----5------|
A|----3------|
E|-----------|

A Chord
E|-----------|
B|-----------|
G|-----------|
D|----5------|
A|----5------|
E|----5------|

E|------------------------|
B|------------------------|
G|------------------------|
D|------\6-6--5-5--3\5-0--|
A|------\6-6--5-5--3\5-0--|
E|------\6 6--5-5--3\5-0--|


E|----------------------------------------------------------------------------------|
B|----------------------------------------------------------------------------------|
G|----------------------------------------------------------------------3-4-5-6-----|
D|--5p3p0-----------------5p3p0------------------5p3p0------------------3-4-5-6-----|
A|-----------3p0--------------------3p0------------------3p0------------1-2-3-4-----|
E|-----------------5p3p0-----------------0h3------------------5p3p0-----------------|

E|----------------------------------------------------------------------------------|
B|----------------------------------------------------------------------------------|
G|----------------------------------------------------------------------3-4-5-6-----|
D|--5p3p0-----------------5p3p0------------------5p3p0------------------3-4-5-6-----|
A|-----------3p0--------------------3p0------------------3p0------------1-2-3-4-----|
E|-----------------5p3p0-----------------0h3------------------5p3p0-----------------|


Verse 2:
E|----------------------------------------------------------------------------------------------|
B|---------------------------------------------------------------------------- -----------------|
G|----------------------------------------------------------------------------------------------|
D|----------------------------------------------------------5p3p0-------------5p3p0-------------|
A|----------------------------------------------------------------3p0----------------3p0--------|
E|--00-00-00-00-00-00-00-00-00-00-00-00-00-00-00-00-00-00-------------5p3p0----------------0h3b-|
    DU DU DU DU DU DU DU DU DU DU DU DU DU DU DU DU DU DU


E|-----------------------------------------------------------------------------------------------|
B|-----------------------------------------------------------------------------------------------|
G|-----------------------------------------------------------------------------------------------|
D|--------------------------88-88-88-88-88-88-88-88-88-88----5p3p0---------------5p3p0-----------|
A|--------------------------88-88-88-88-88-88-88-88-88-88-----------3p0----------------3p0-------|
E|--00-00-00-00-00-00-00-00-88-88-88-88-88-88-88-88-88-88----------------5p3p0--------------0h3b-|
    DU DU DU DU DU DU DU DU DU DU DU DU DU DU DU DU DU DU

E|-----------------------------------------------|
B|-----------------------------------------------|
G|---5-5-5-5-5-5-5-5---7-7----------7-7----------|
D|---5-5-5-5-5-5-5-5---7-7---7-6-5--7-7--7-6-5---|
A|---3-3-3-3-3-3-3-3---5-5---7-6-5--5-5--7-6-5---|
E|---------------------------7-6-5-------7-6-5---| x2


Chrous
Chords: D, G, C, A

D chord
E|-----2-----|
B|--------3--|
G|---2-------|
D|-----------|
A|-----------|
E|-----------|

G chord
E|-----------|
B|-----------|
G|-----------|
D|---3-------|
A|---3-------|
E|---3-------|

C Chord
E|-----------|
B|-----------|
G|----5------|
D|----5------|
A|----3------|
E|-----------|

A Chord
E|----------|
B|----------|
G|----------|
D|----5-----|
A|----5-----|
E|----5-----|

E|------------------------|
B|------------------------|
G|------------------------|
D|------\6-6--5-5--3\5-0--|
A|------\6-6--5-5--3\5-0--|
E|------\6 6--5-5--3\5-0--|

Chrous
Chords: D, G, C, A

D chord
E|-----2-----|
B|--------3--|
G|---2-------|
D|-----------|
A|-----------|
E|-----------|

G chord
E|----------|
B|----------|
G|----------|
D|---3------|
A|---3------|
E|---3------|

C Chord
E|----------|
B|----------|
G|----5-----|
D|----5-----|
A|----3-----|
E|----------|

A Chord
E|-----------|
B|-----------|
G|-----------|
D|----5------|
A|----5------|
E|----5------|

Slow part starts at 2:22

Come give your C*** a chance...

Gutair starts at 2:46

E|-----------------------------------------------------------------------------------|
B|-----------------------------------------------------------------------------------|
G|----------9-9-9-9--7--7-7----------------------------------------------------------|
D|----------9-9-9-9--7--7-7--7--12--9----10------  On the 3rd time hit the 10 10 10--|
A|--6-7-8---7-7-7-7--5--5-5--7--12--9----10------------------------------------------|
E|---------------------------7--12--9----10------------------------------------------| 
Repeat 3 times without the 6 7 8 part


E|----------------------------------------|
B|----------------------------------------|
G|----------------------------------------|
D|---9-9-9-9-9-9-9-9---3-3-3-3---0-0-0-0--|
A|---9-9-9-9-9-9-9-9---3-3-3-3---0-0-0-0--|
E|---9-9-9-9-9-9-9-9---3-3-3-3---0-0-0-0--| x3


E|----------------------------------------------------|
B|----------------------------------------------------|
G|----------------------------------------------------|
D|-----8-8-8-8-8-8-8-8----10-10-10-10-10-10-10-10-----|
A|-----8-8-8-8-8-8-8-8----10-10-10-10-10-10-10-10-----|
E|-----8-8-8-8-8-8-8-8----10-10-10-10-10-10-10-10-----|

E|---------------------------------------------------------|
B|---------------------------------------------------------|
G|---------------------------------------------------------|
D|--5p3p0-----------------5p3p0----------------------------|
A|-----------3p0--------------------3p0--------------------|
E|-----------------5p3p0-----------------0h3---------------|

E|------------------------------------------------|
B|------------------------------------------------|
G|---7---5----------------------------------------|
D|---7---5--10--9---7-----8-9-10-11---10-11-12-13-|
A|---5---3--10--9---7-----8-9-10-11---10-11-12-13-|
E|----------10--9---7-----8-9-10-11---10-11-12-13-|


Chrous
Chords: D, G, C, A

D chord
E|-----2-----|
B|--------3--|
G|---2-------|
D|-----------|
A|-----------|
E|-----------|

G chord
E|-----------|
B|-----------|
G|-----------|
D|---3-------|
A|---3-------|
E|---3-------|

C Chord
E|-----------|
B|-----------|
G|----5------|
D|----5------|
A|----3------|
E|-----------|

A Chord
E|-------------|
B|-------------|
G|-------------|
D|----5--------|
A|----5--------|
E|----5--------|

Outro
E|-----------------------------------------------------------------------|
B|-----------------------------------------------------------------------|
G|-------------------------------------3-3-3-3-3-3-3-3-------------------|
D|----0-0-0-0-0-0-0-0-3-3-3-3-3-3-3-3--3-3-3-3-3-3-3-3--7-7-7-7-7-7-7-7--|
A|----0-0-0-0-0-0-0-0-3-3-3-3-3-3-3-3--1-1-1-1-1-1-1-1--7-7-7-7-7-7-7-7--|
E|----0-0-0-0-0-0-0-0-3-3-3-3-3-3-3-3-------------------7-7-7-7-7-7-7-7--|

E|------------------------------|
B|------------------------------|
G|------------------------------|
D|------\6-6--5-5--3\5-0--0-0-0-|
A|------\6-6--5-5--3\5-0--0-0-0-|
E|------\6 6--5-5--3\5-0--0-0-0-|
Добавлено: 25.05.2014
Другие материалы по этой песне:

Страница создана 25.05.2014
http://primanota.ru/steel-panther/glory-hole-chords.htm
Привет, Гость.
Предлагаем пройти революционный курс по гитаре.
Подарок от PrimaNota.Ru, забирай!