PrimaNota.ru - самый крупный в мире бесплатный архив песенных текстов, аккордов, табулатур и нот


Steel Panther - Gold Digging Whore - таба, видео

Регистрация Запомнить меня
Войти через:  Facebook Google Twitter Vk Yandex Mail.ru

Steel Panther - Gold Digging Whore - таба, видео

Печатать
Просмотров: 209
Submitted by iloveamanda12 (The last time I posted, I got no credit for Supersonic Sex 
Machine! I learned my lesson!)

Tuning: Half-step down

Gold Digging Whore
------------------

Intro:
           (A)   .       (B) x4
e|-----------|-----------|
B|-----------|-----------|
G|-7---4-----|-----------|
D|-7-7-4-2-4-|-4---4-2h4-|
A|-5-7-2-2-4-|-4---4-2h4-|
E|---5---0-2-|-2-2-2-2---|

Verse:
           (C)    . .      (D)
e|------------|------------|
B|---7---7---7|------------|
G|-4-6-4-6-4-6|-------4----|
D|-4-4-4-4-4-4|-2-----4-2-4|
A|-2---2---2--|-2-----2-2-4|
E|------------|-0-0-0---0-2|

Repeat B x1
Repeat C x1
Repeat D x1
Repeat B x1
Repeat D x1
Repeat B x1

Chorus:
           (E)          . . . . . . . . . . . .    (F)
e|---------|---------------------------------------|
B|---------|---------------------------------------|
G|-4-4-4-4-|-7-------------------------------------|
D|-4-4-4-4-|-7--7--2--4-------------------------2h4|
A|-2-2-2-2-|-5--7--2--4-------------------------2h4|
E|---------|----5--0--2-2-2-2-2-2-2-2-2-2-2-2-2-2--|

Repeat C x1
Repeat D x1
Repeat B x1
Repeat C x1
Repeat D x1
Repeat B x1
Repeat D x1
Repeat B x1
             (G)   .           .   .       .   .       .   .   (H) x2
e|-------------|----------------------------------------------|
B|-------------|----------------------------------------------|
G|-4-4-4-4-4-4-|-------------7---7---7-7-------------4---4---4-4|
D|-4-4-4-4-4-4-|-4-----------7---7---7-7-7---7---7-7-4---4---4-4|
A|-2-2-2-2-2-2-|-4---2-5-4-2-5-5-5-5-5-5-7---7---7-7-2-2-2-2-2-2|
E|-------------|-2-2---------------------5-5-5-5-5-5------------|

Repeat F x1
            .   .   .                    . . .
e|------------------------------------------------|
B|------------------------------------------------|
G|-------------------------------4-----4-------4/6|
D|-6--2--5-----------------6--2--4-----4-------4/6|
A|-6--2--5----4---6---4----6--2--2-----2-2-2-2-2/4|
E|-4--0--3--2---2---2---2--4--0-------------------|

Solo (Satchel tabbed that out in Guitar World, I'm not going to here)

                    x3  Last time, leave off the D chord
e|-----------------|
B|-----------------|
G|----2-----4-----7|
D|-4--2--2--4--4--7|
A|-4--0--2--2--4--5|
E|-2-----0-----2---|

Repeat G
Repeat H x2

               .          .       x2
e|---------|---------------------|
B|---------|---------------------|
G|-7-------|---------------------|
D|-7--7--2-|-4---4-2h4--4---4-2h4|
A|-5--7--2-|-4---4-2h4--4---4-2h4|
E|----5--0-|-2-2-2-2----2-2-2-2--|

   G O L D  DIGGING  W  H O R     E!
e|---------------------------------|
B|---------------------------------|
G|----------2222222-----4-4--------|
D|-4-4-4-4--2222222--2--4-4-4------|
A|-4-4-4-4--0000000--2--2-2-4------|
E|-2-2-2-2-----------0------2------|
Добавлено: 18.08.2013
Другие материалы по этой песне:
  • Аккорды и текст

Страница создана 18.08.2013
http://primanota.ru/steel-panther/gold-digging-whore-chords.htm
Привет, Гость.
Предлагаем пройти революционный курс по гитаре.
Подарок от PrimaNota.Ru, забирай!