PrimaNota.ru - самый крупный в мире бесплатный архив песенных текстов, аккордов, табулатур и нот


Stahlmann - Tanzmaschine - текст песни, таба, видео

Регистрация Запомнить меня
Войти через:  Facebook Google Twitter Vk Yandex Mail.ru

Stahlmann - Tanzmaschine - текст песни, таба, видео

Печатать
Просмотров: 122
Уроки эстрадного вокала в Санкт-Петербурге
Intro
D|-----|
A|-----|
F|-----|
C|-2-0-|
G|-2-0-|
C|-2-0-|

D|--------------------------------------------------------------------------------|
A|--------------------------------------------------------------------------------|
F|--------------------------------------------------------------------------------|
C|-2-0-0----20-2-2-|-2-0-0----20-2-22-|-2-0-0----20-2-2--0-2-----2-0----0----0----|
G|-2-0-0----20-2-2-|-2-0-0----20-2-22-|-2-0-0----20-2-2--0-2-----2-0----0----0----|
C|-2-0-0-00-20-2-2-|-2-0-0-00-20-2-22-|-2-0-0-00-20-2-2--0-2-222-2-0-00-0-00-0-00-|
         **                **                 **             ***     **   **   **

D|---------------------------------------------------------|
A|---------------------------------------------------------|
F|---------------------------------------------------------|
C|-0----0----0---7----7----7---3----3----3---5----5----5---| x4
G|-0----0----0---7----7----7---3----3----3---5----5----5---|
C|-0-00-0-00-0-0-7-77-7-77-7-7-3-33-3-33-3-3-5-55-5-55-5-5-|
     **   **   *   **   **   *   **   **   *   **   **   *
Chorus
D|--------------------------------------------------------------------------------|
A|--------------------------------------------------------------------------------|
F|--------------------------------------------------------------------------------|
C|-2-0-0----20-2-2-|-2-0-0----20-2-22-|-2-0-0----20-2-2--0-2-----2-0----0----0----| x2
G|-2-0-0----20-2-2-|-2-0-0----20-2-22-|-2-0-0----20-2-2--0-2-----2-0----0----0----|
C|-2-0-0-00-20-2-2-|-2-0-0-00-20-2-22-|-2-0-0-00-20-2-2--0-2-222-2-0-00-0-00-0-00-|
         **                **                 **             ***     **   **   **


D|---------------------------------------------------------|
A|---------------------------------------------------------|
F|---------------------------------------------------------|
C|-0----0----0---7----7----7---3----3----3---5----5----5---| x4
G|-0----0----0---7----7----7---3----3----3---5----5----5---|
C|-0-00-0-00-0-0-7-77-7-77-7-7-3-33-3-33-3-3-5-55-5-55-5-5-|
     **   **   *   **   **   *   **   **   *   **   **   *

Chorus
D|--------------------------------------------------------------------------------|
A|--------------------------------------------------------------------------------|
F|--------------------------------------------------------------------------------|
C|-2-0-0----20-2-2-|-2-0-0----20-2-22-|-2-0-0----20-2-2--0-2-----2-0----0----0----| x2
G|-2-0-0----20-2-2-|-2-0-0----20-2-22-|-2-0-0----20-2-2--0-2-----2-0----0----0----|
C|-2-0-0-00-20-2-2-|-2-0-0-00-20-2-22-|-2-0-0-00-20-2-2--0-2-222-2-0-00-0-00-0-00-|
         **                **                 **             ***     **   **   **

D|-----------------------------------------------------------------------|
A|-----------------------------------------------------------------------|
F|---------------------------------------------------------------__------|
C|-0--3-5-3------------3-------------0--3-5-3------------3-------------0-|
G|-0--3-5-3------------3-------------0--3-5-3------------3-------------0-|
C|-0--3-5-3-333-333-33-3-333-333-33--0--3-5-3-333-333-33-3-333-333-33--0-|
             *** *** **   *** *** **            *** *** **   *** *** **

Chorus
D|--------------------------------------------------------------------------------|
A|--------------------------------------------------------------------------------|
F|--------------------------------------------------------------------------------|
C|-2-0-0----20-2-2-|-2-0-0----20-2-22-|-2-0-0----20-2-2--0-2-----2-0----0----0----| 
G|-2-0-0----20-2-2-|-2-0-0----20-2-22-|-2-0-0----20-2-2--0-2-----2-0----0----0----|
C|-2-0-0-00-20-2-2-|-2-0-0-00-20-2-22-|-2-0-0-00-20-2-2--0-2-222-2-0-00-0-00-0-00-|
         **                **                 **             ***     **   **   **
D|---------------------------------------------------------------------------------|
A|---------------------------------------------------------------------------------|
F|---------------------------------------------------------------------------------|
C|-2-0-0----20-2-2-|-2-0-0----20-2-22-|-2-0-0----20-2-2--0-2-----2-0----0----0---0-| 
G|-2-0-0----20-2-2-|-2-0-0----20-2-22-|-2-0-0----20-2-2--0-2-----2-0----0----0---0-|
C|-2-0-0-00-20-2-2-|-2-0-0-00-20-2-22-|-2-0-0-00-20-2-2--0-2-222-2-0-00-0-00-0-0-0-|
         **                **                 **             ***     **   **   *

* - palm mute
Добавлено: 24.10.2015
Другие материалы по этой песне:
  • Аккорды и текст

Страница создана 10.08.2014
http://primanota.ru/stahlmann/tanzmaschine-chords.htm
Привет, Гость.
Предлагаем пройти революционный курс по гитаре.
Подарок от PrimaNota.Ru, забирай!