PrimaNota.ru - самый крупный в мире бесплатный архив песенных текстов, аккордов, табулатур и нот


Soft Cell - Entertain me - текст песни, бас-таба, видео

Регистрация Запомнить меня
Войти через:  Facebook Google Twitter Vk Yandex Mail.ru

Soft Cell - Entertain me - текст песни, бас-таба, видео

Печатать
Просмотров: 282
Авторы музыки: Dave Ball
Авторы текста: Marc Almond
Tabbed by: bassm99
E-mail: alanmatthews1966@yahoo.co.uk

Tuning: E, A, D, G

"Entertain Me" from the album "Non Stop Erotic Cabaret" (1981)
Written by Marc Almond & Dave Ball

Intro: 

G|--------------------------------------------------------------------------|
D|--------------------------------------------------------------------------|
A|--------------------------------------------------------------------------|
E|--3333333333333-----------------------------------------------------------|

Chorus: (4 Times)

G|-------55----------------33-----------------------------------------------|
D|----------------33----------------55--------------------------------------|
A|--3333--------------1111--------------------------------------------------|
E|-----------1111--------------3333-----------------------------------------|

Chorus:

G|-------33-----------------------------------------------------------------|
D|----------------55-------66-------55--------------------------------------|
A|--1111--------------------------------------------------------------------|
E|-----------3333-----4444-----3333-----------------------------------------|

Verse: (4 Times) 

G|-------55-----------------------------------------------------------------|
D|----------------33-------66-------55--------------------------------------|
A|--3333--------------------------------------------------------------------|
E|-----------1111-----4444-----3333-----------------------------------------|

Repeat Chorus:

Keyboard solo: (Repeat Verse)

Repeat Chorus:

Repeat verse:

Repeat Chorus: (Twice)

End:

G|--------------------------------------------------------------------------|
D|--------------------------------------------------------------------------|
A|--33333333333333333333333333----------------------------------------------|
E|--------------------------------------------------------------------------|
Добавлено: 22.07.2013
Другие материалы по этой песне:
  • Аккорды и текст

Страница создана 01.07.2012
http://primanota.ru/soft-cell/entertain-me-chords.htm
Привет, Гость.
Предлагаем пройти революционный курс по гитаре.
Подарок от PrimaNota.Ru, забирай!