PrimaNota.ru - самый крупный в мире бесплатный архив песенных текстов, аккордов, табулатур и нот


Soft Cell - Seedy Films - текст песни, бас-таба, видео

Регистрация Запомнить меня
Войти через:  Facebook Google Twitter Vk Yandex Mail.ru

Soft Cell - Seedy Films - текст песни, бас-таба, видео

Печатать
Просмотров: 190
Авторы музыки: Dave Ball
Авторы текста: Marc Almond
Tabbed by: bassm99 
E-mail: alanmatthews1966@yahoo.co.uk

Not enough Soft Cell tabs online!!
Non Stop Erotic Bass Tabs!!

"Seedy Films" from the album "Non Stop Erotic Cabaret" (1981)
Written by Marc Almond & Dave Ball


Intro & Verses

G|-------------7----5--------------------------------------------------------|
D|---------------------------------5----3------------------------------------|
A|--0----5-------------------------------------------------------------------|
E|-----------------------0----3----------------------------------------------|


Chorus [D,C,E,D]

G|----7-7-7-7---5-5-5-5---9-9-9-9---7-7-7-7----------------------------------|
D|---------------------------------------------------------------------------|
A|--5-5-5-5----3-3-3-3---7-7-7-7---5-5-5-5-----------------------------------|
E|---------------------------------------------------------------------------|

G|----7-7-7-7---5-5-5-5---9-9-9-9---7-7-7------------------------------------|
D|---------------------------------------------------------------------------|
A|--5-5-5-5----3-3-3-3---7-7-7-7---5-5-5-5-----------------------------------|
E|---------------------------------------------------------------------------|
Добавлено: 25.11.2013
Другие материалы по этой песне:
  • Аккорды и текст

Страница создана 13.05.2012
http://primanota.ru/soft-cell/seedy-films-chords.htm
Привет, Гость.
Предлагаем пройти революционный курс по гитаре.
Подарок от PrimaNota.Ru, забирай!