PrimaNota.ru - самый крупный в мире бесплатный архив песенных текстов, аккордов, табулатур и нот


Soft Cell - It's A Mug's Game - текст песни, бас-таба, видео

Регистрация Запомнить меня
Войти через:  Facebook Google Twitter Vk Yandex Mail.ru

Soft Cell - It's A Mug's Game - текст песни, бас-таба, видео

Печатать
Просмотров: 109
Авторы музыки: Dave Ball
Авторы текста: Marc Almond
Tabbed by: bassm99
E-mail: alanmatthews1966@yahoo.co.uk

Tuning: E, A, D, G

"It's A Mugs Game" from the Single "Where The Heart Is" (1982)
Written by Marc Almond & Dave Ball

Intro: 

G|--------------------------------------------------------------------------|
D|--------------------------------------------------------------------------|
A|--------------------------------55555555----------------------------------|
E|--3-3-4-2-4-2-4-(x4)--33333333------------55555555--00000420-(x4)---------|

Pre Verse:

G|--------------------------------------------------------------------------|
D|--------------------------------------------------------------------------|
A|--------------------------------------------------------------------------|
E|--3-0-4-1/-(x3)--3-0-4-1--------------------------------------------------|

Verse: 

G|--------------------------------------------------------------------------|
D|--------------------------------------------------------------------------|
A|--------------------------------------------------------------------------|
E|--3-3-4-2-4-2-4-(x12)-----------------------------------------------------|

Chorus:

G|--------------------------------------------------------------------------|
D|--------------------------------------------------------------------------|
A|------------55555555------------------------------------------------------|
E|--33333333------------55555555--00000420-(x4)-----------------------------|

Pre Verse:

G|--------------------------------------------------------------------------|
D|--------------------------------------------------------------------------|
A|--------------------------------------------------------------------------|
E|--3-0-4-0-1-0-(x4)--------------------------------------------------------|

Repeat Verse:

Repeat Chorus: (8 Times)

Pre Verse:

G|--------------------------------------------------------------------------|
D|--------------------------------------------------------------------------|
A|--------------------------------------------------------------------------|
E|--3-4-0-1-0-(x4)----------------------------------------------------------|

Repeat Verse: (21 Times)

Repeat Chorus: (15 Times)

End:

G|--------------------------------------------------------------------------|
D|--------------------------------------------------------------------------|
A|--------------------------------------------------------------------------|
E|--333333-3----------------------------------------------------------------|

Добавлено: 02.11.2013
Другие материалы по этой песне:
  • Аккорды и текст

Страница создана 24.04.2012
http://primanota.ru/soft-cell/its-a-mugs-game-chords.htm
Привет, Гость.
Предлагаем пройти революционный курс по гитаре.
Подарок от PrimaNota.Ru, забирай!