PrimaNota.ru - самый крупный в мире бесплатный архив песенных текстов, аккордов, табулатур и нот


Soft Cell - Fun City - текст песни, бас-таба, видео

Регистрация Запомнить меня
Войти через:  Facebook Google Twitter Vk Yandex Mail.ru

Soft Cell - Fun City - текст песни, бас-таба, видео

Печатать
Просмотров: 117
Tabbed by: bassm99
E-mail: alanmatthews1966@yahoo.co.uk

Tuning: E, A, D, G

"Fun City" from the Single "Say Hello Wave Goodbye" (1982)
Written by Marc Almond & Dave Ball

Intro: (Bass comes in 0:45)

G|--------------------------------------------------------------------------|
D|--------------------------------------------------------------------------|
A|--5555555555555555--------------------------------------------------------|
E|--------------------------------------------------------------------------|

Verse: (4 Times)

G|--------------------------------------------------------------------------|
D|--------------------------------------------------------------------------|
A|--5555555555555555--10-10-10-10-10-10-10-10--33333333---------------------|
E|--------------------------------------------------------------------------|

Chorus: (2 Times)

G|--------------------------------------------------------------------------|
D|--------------------------------------------------------------------------|
A|--55555555--77777777--88888888--10-10-10-10-10-10-10-10-------------------|
E|--------------------------------------------------------------------------|

Pre Verse: Synth Bass Only

Verse: (2 Times)

G|--------------------------------------------------------------------------|
D|--------------------------------------------------------------------------|
A|--5555555555555555--10-10-10-10-10-10-10-10--33333333---------------------|
E|--------------------------------------------------------------------------|

G|---------------------------------------------------5-7--------------------|
D|--------------------------------------------------------------------------|
A|--5555555555555555--10-10-10-10-10-10-10-10--333333-----------------------|
E|--------------------------------------------------------------------------|

Repeat Chorus:

Pre Verse:

G|--------------------------------------------------------------------------|
D|--------------------------------------------------------------------------|
A|--5555555555555555--10-10-10-10-10-10-10-10--15-15-15-15-15-15-15-15------|
E|--------------------------------------------------------------------------|

G|--------------------------------------------------------------------------|
D|--------------------------------------------------------------------------|
A|--5555555555555555--10-10-10-10-10-10-10-10--33333333---------------------|
E|--------------------------------------------------------------------------|

Verse: 

G|--------------------------------------------------------------------------|
D|--------------------------------------------------------------------------|
A|--5555555555555555--10-10-10-10-10-10-10-10--33333333---------------------|
E|--------------------------------------------------------------------------|

G|---------------------------------------------------5-7--------------------|
D|--------------------------------------------------------------------------|
A|--5555555555555555--10-10-10-10-10-10-10-10--333333-----------------------|
E|--------------------------------------------------------------------------|

G|--------------------------------------------------------------------------|
D|--------------------------------------------------------------------------|
A|--5555555555555555--10-10-10-10-10-10-10-10--33333333-(x2)----------------|
E|--------------------------------------------------------------------------|

Repeat Chorus:

Pre Verse:

G|--------------------------------------------------------------------------|
D|--------------------------------------------------------------------------|
A|--5555555555555555--10-10-10-10-10-10-10-10--33333333---------------------|
E|--------------------------------------------------------------------------|

G|--------------------------------------------------------------------------|
D|--------------------------------------------------------------------------|
A|--5555555555555555--10-10-10-10-10-10-10-10--15-15-15-15-15-15-15-15------|
E|--------------------------------------------------------------------------|

Verse: (2 Times)

G|---------------------------------------------------5-7--------------------|
D|--------------------------------------------------------------------------|
A|--5555555555555555--10-10-10-10-10-10-10-10--333333-----------------------|
E|--------------------------------------------------------------------------|

G|--------------------------------------------------------------------------|
D|--------------------------------------------------------------------------|
A|--5555555555555555--10-10-10-10-10-10-10-10--33333333---------------------|
E|--------------------------------------------------------------------------|

Chorus: Synth Bass Only

Pre verse:

G|---------------------------------------------------5-7--------------------|
D|--------------------------------------------------------------------------|
A|--5555555555555555--10-10-10-10-10-10-10-10--333333-----------------------|
E|--------------------------------------------------------------------------|

G|--------------------------------------------------------------------------|
D|--------------------------------------------------------------------------|
A|--5555555555555555--10-10-10-10-10-10-10-10--15-15-15-15-15-15-15-15------|
E|--------------------------------------------------------------------------|

Verse:

G|---------------------------------------------------5-7--------------------|
D|--------------------------------------------------------------------------|
A|--5555555555555555--10-10-10-10-10-10-10-10--333333-----------------------|
E|--------------------------------------------------------------------------|

G|--------------------------------------------------------------------------|
D|--------------------------------------------------------------------------|
A|--5555555555555555--10-10-10-10-10-10-10-10--33333333-(x2)----------------|
E|--------------------------------------------------------------------------|

G|--------------------------------------------------------------------------|
D|----------------------------------------------------3-5-------------------|
A|--5555555555555555--10-10-10-10-10-10-10-10--333333-----------------------|
E|--------------------------------------------------------------------------|

Chorus: Synth Bass Only

Drum Break:

Pre Verse: (Bass comes in 5:29)

G|--------------------------------------------------------------------------|
D|--------------------------------------------------------------------------|
A|--5555555555555555--10-10-10-10-10-10-10-10--33333333---------------------|
E|--------------------------------------------------------------------------|

Verse:

G|--------------------------------------------------------------------------|
D|--------------------------------------------------------------------------|
A|--5555555555555555--10-10-10-10-10-10-10-10--33333333-(x2)----------------|
E|--------------------------------------------------------------------------|

G|---------------------------------------------------5-7--------------------|
D|--------------------------------------------------------------------------|
A|--5555555555555555--10-10-10-10-10-10-10-10--333333-----------------------|
E|--------------------------------------------------------------------------|

G|--------------------------------------------------------------------------|
D|--------------------------------------------------------------------------|
A|--5555555555555555--10-10-10-10-10-10-10-10--333333-3-5-------------------|
E|--------------------------------------------------------------------------|

Chorus: Synth Bass Only
Добавлено: 05.02.2014
Другие материалы по этой песне:
  • Аккорды и текст

Страница создана 07.07.2012
http://primanota.ru/soft-cell/fun-city-chords.htm
Привет, Гость.
Предлагаем пройти революционный курс по гитаре.
Подарок от PrimaNota.Ru, забирай!