PrimaNota.ru - самый крупный в мире бесплатный архив песенных текстов, аккордов, табулатур и нот


Soft Cell - Bedsitter - текст песни, бас-таба, видео

Регистрация Запомнить меня
Войти через:  Facebook Google Twitter Vk Yandex Mail.ru

Soft Cell - Bedsitter - текст песни, бас-таба, видео

Печатать
Просмотров: 269
Авторы музыки: Dave Ball
Авторы текста: Marc Almond
Tabbed by: bassm99
E-mail: alanmatthews1966@yahoo.co.uk

Tuning: E, A, D, G

"Bedsitter" from the album "Non Stop Erotic Cabaret" (1981)
Written by Marc Almond & Dave Ball

Intro:

G|--------------------------------------------------------------------------|
D|--------------------------------------------------------------------------|
A|--------------------------------------------------------------------------|
E|--5-5--3-3----5-5--3-3----------------------------------------------------|

Verse:

G|--------------------------------------------------------------------------|
D|--------------------------------------------------------------------------|
A|--------------------------------------------------------------------------|
E|--5-5-5-5----3-3-3-3------------------------------------------------------|

Chorus: [D, E, C, D]

G|--------------------------------------------------------------------------|
D|--------------------------------------------------------------------------|
A|--5-5-5-5----7-7-7-7----3-3-3-3----5-5-5-5--------------------------------|
E|--------------------------------------------------------------------------|

Chorus Ending: [D, E, C, D]

G|--------------------------------------------------------------------------|
D|----7---7---7---7-----9---9---9---9------5---5---5---5------7---7---7--7--|
A|--5---5---5---5-----7---7---7---7------3---3---3---3------5---5---5---5---|
E|--------------------------------------------------------------------------|
Добавлено: 21.08.2013
Другие материалы по этой песне:
  • Аккорды и текст

Страница создана 21.02.2012
http://primanota.ru/soft-cell/bedsitter-chords.htm
Привет, Гость.
Предлагаем пройти революционный курс по гитаре.
Подарок от PrimaNota.Ru, забирай!