PrimaNota.ru - самый крупный в мире бесплатный архив песенных текстов, аккордов, табулатур и нот


Soft Cell - Chips on my Shoulder - текст песни, бас-таба, видео

Регистрация Запомнить меня
Войти через:  Facebook Google Twitter Vk Yandex Mail.ru

Soft Cell - Chips on my Shoulder - текст песни, бас-таба, видео

Печатать
Просмотров: 237
Авторы музыки: Dave Ball
Авторы текста: Marc Almond
Tabbed by: bassm99
E-mail: alanmatthews1966@yahoo.co.uk

Tuning: E, A, D, G

"Chips On My Shoulder" from the album "Non Stop Erotic Cabaret" (1981)
Written by Marc Almond & Dave Ball

Intro: (Play Twice) 

G|-----7--------5--7-----9-------7--------5--7------------------------------|
D|--------5--7--------5-------------5--7--------5---------------------------|
A|--5-------------------------5---------------------------------------------|
E|--------------------------------------------------------------------------|

Verse: (Repeat as required)

G|--------------------------------------------------------------------------|
D|--------------------------------------------------------------------------|
A|--55555555-0-55555555-0-33333333-0-33333333-0-----------------------------|
E|--------------------------------------------------------------------------|

Chorus: (Four Times)

G|----------10---10-----------12---10---------------------------------------|
D|--------------------------------------------------------------------------|
A|--5555--8----8-----3333--10----8------------------------------------------|
E|--------------------------------------------------------------------------|

End: 

G|----7-----7--7------7-----7--7--------------------------------------------|
D|--------------------------------------------------------------------------|
A|--5-----5--5------5-----5--5----------------------------------------------|
E|--------------------------------------------------------------------------|

G|-----7--------5--7-----9-------7--------5--7------------------------------|
D|--------5--7--------5-------------5--7--------5---------------------------|
A|--5-------------------------5---------------------------------------------|
E|--------------------------------------------------------------------------|

G|-----7--------5--7-----9--------------------------------------------------|
D|--------5--7--------5-----------------------------------------------------|
A|--5-----------------------------------------------------------------------|
E|--------------------------------------------------------------------------|

Listen to the song to get the rhythm of the bass & song structure.
Добавлено: 10.10.2013
Другие материалы по этой песне:
  • Аккорды и текст

Страница создана 07.07.2012
http://primanota.ru/soft-cell/chips-on-my-shoulder-chords.htm
Привет, Гость.
Предлагаем пройти революционный курс по гитаре.
Подарок от PrimaNota.Ru, забирай!