PrimaNota.ru - самый крупный в мире бесплатный архив песенных текстов, аккордов, табулатур и нот


Six Feet Under - Born To The Bone - таба, видео

Регистрация Запомнить меня
Войти через:  Facebook Google Twitter Vk Yandex Mail.ru

Six Feet Under - Born To The Bone - таба, видео

Печатать
Просмотров: 122
.  - palm mute           /  - slide up to  
\  - slide down to       ~  - vibrato  
h  - hammer on           b  - Bend  
p  - pull off            Suffixes for bend  
t  - tap                 f  - full bend    h - half bend  
ph - pinched harmonic    q  - quarter bend t - tap bend  
*  - see comment         ^  - Hold bend    r release bend  
x  - Rest                ~  - vibrato bend  
,  - slight palm mute    () - ghost note, sustained note  
"  - tremolo note        <> - Trill  
 
Tunning "D"G"C"F"A"D"  
 
 
Riff 1 
|-----------------------------------------------------------------------| 
|-----------------------------------------------------------------------| 
|--------5----------------6----------------5----------6--5-----------5--| 
|--------3--5--4----------4--6--5----------3--5--4----4--3--5--4--5--3--| 
|-----------3--2-------------4--3-------------3--2----------3--2--3-----| 
|--0-000------------0-000------------0-000------------------------------| 
   . ...            . ...            . ... 
   
Fill 1  
|-----------------------------------------------------------------------| 
|-----------------------------------------------------------------------| 
|-----------------------------------------------------------------------| 
|-----------------------------------------------------------------------| 
|--2x---------------2x---------------2x---------------------------------| 
|--0x---------------0x---------------0x---------------------------------| 
 
 
Riff 2 
|--------------------------------| 
|--------------------------------| 
|--------------------------------| 
|-----------------------6-----4--| 
|--2------3------3------4--5--2--| 
|--0--000-1--111-1--111----3-----| 
      ...    ...    ... 
 
Fill 2 
|-----------------------------------------------------------------------| 
|-----------------------------------------------------------------------| 
|-----------------------------------------------------------------------| 
|--2----------------2-----------------2-----------------2---------------| 
|--2----------------2-----------------2-----------------2---------------| 
|--0----------------0-----------------0-----------------0---------------| 
             
 
Riff 3 
|-------------------------------------------------------------| 
|-------------------------------------------------------------| 
|-------------------------------------------------------------| 
|--------5---4-------------------------5----------------------| 
|--------3---2----------5---3----------3----------------------| 
|--0-000---0------0-000-3-0-1----0-000------0-0-444444111111--| 
   . ...   .      . ...   .      . ...      . . ............ 
 
Riff 4 
|-------------------------------------------------------------| 
|-------------------------------------------------------------| 
|-------------------------------------------------------------| 
|-----------------------------------------------6-----5-------| 
|--------6---5----------3-5-3----------5--------4-----3-------| 
|--0-000-4-0-3----0-000-1-3-1----0-000-3----0-0-4-----3-------| 
   . ...   .      . ...          . ...      . . 

Добавлено: 27.07.2013
Другие материалы по этой песне:
  • Аккорды и текст

Страница создана 27.07.2013
http://primanota.ru/six-feet-under/born-to-the-bone-chords.htm
Привет, Гость.
Предлагаем пройти революционный курс по гитаре.
Подарок от PrimaNota.Ru, забирай!