PrimaNota.ru - самый крупный в мире бесплатный архив песенных текстов, аккордов, табулатур и нот


Six Feet Under - Silent Violence - аккорды и текст, таба, бас-таба, видео

Регистрация Запомнить меня
Войти через:  Facebook Google Twitter Vk Yandex Mail.ru

Six Feet Under - Silent Violence - аккорды и текст, таба, бас-таба, видео

Печатать
Просмотров: 183
Silent Violence
Six Feet Under
		   Silent Violence
By: Six Feet Under
Tabbed by Billy Denehy
Drop "D" Tuning

Fill 1
|-------------|
|-------------|
|-------------|
|-2--0--3--0--|
|-2--0--3--0--|
|-2--0--3--0--|

Riff 1
|----------------------------------|
|----------------------------------|
|----------------------------------|
|-0-0-0000-0-0-000-----------------|
|-0-0-0000-0-0-000-----------------|
|-0-0-0000-0-0-000-----------------|

Riff 2
|-----------------------------------------|
|-----------------------------------------|
|-----------------------------------------|
|-12-12-0000-11-11-0000-10-10-0000-9-10-11|
|-12-12-0000-11-11-0000-10-10-0000-9-10-11|
|-12-12-0000-11-11-0000-10-10-0000-9-10-11|

Riff 3
|-----------------------------------------|
|-----------------------------------------|
|-----------------------------------------|
|-0-0-2--00-0-2-4-3----0-0-2--00-0-2-3-4--|
|-0-0-2--00-0-2-4-3----0-0-2--00-0-2-3-4--|
|-0-0-2--00-0-2-4-3----0-0-2--00-0-2-3-4--|

Listen to the album for the rythym and order.  I believe these are all the
parts. Please e-mail corrections and comments to Pantera606@AOL.com.     
Добавлено: 17.10.2013
Другие материалы по этой песне:

Страница создана 24.03.2012
http://primanota.ru/six-feet-under/silent-violence-chords.htm
Привет, Гость.
Предлагаем пройти революционный курс по гитаре.
Подарок от PrimaNota.Ru, забирай!